  0
SECTION
  2
HEADER
  9
$ACADVER
  1
AC1009
  9
$INSBASE
 10
0.0
 20
0.0
 30
0.0
  9
$EXTMIN
 10
0.4472477894657679
 20
0.360060572701272
 30
0.0
  9
$EXTMAX
 10
32.590191503133141
 20
12.240730644214119
 30
0.0
  9
$LIMMIN
 10
0.0
 20
0.0
  9
$LIMMAX
 10
12.0
 20
9.0
  9
$ORTHOMODE
 70
     0
  9
$REGENMODE
 70
     1
  9
$FILLMODE
 70
     1
  9
$QTEXTMODE
 70
     0
  9
$MIRRTEXT
 70
     0
  9
$DRAGMODE
 70
     2
  9
$LTSCALE
 40
1.0
  9
$OSMODE
 70
  2087
  9
$ATTMODE
 70
     1
  9
$TEXTSIZE
 40
0.2
  9
$TRACEWID
 40
0.05
  9
$TEXTSTYLE
  7
STANDARD
  9
$CLAYER
  8
0
  9
$CELTYPE
  6
BYLAYER
  9
$CECOLOR
 62
   256
  9
$DIMSCALE
 40
1.0
  9
$DIMASZ
 40
0.18
  9
$DIMEXO
 40
0.0625
  9
$DIMDLI
 40
0.38
  9
$DIMRND
 40
0.0
  9
$DIMDLE
 40
0.0
  9
$DIMEXE
 40
0.18
  9
$DIMTP
 40
0.0
  9
$DIMTM
 40
0.0
  9
$DIMTXT
 40
0.18
  9
$DIMCEN
 40
0.09
  9
$DIMTSZ
 40
0.0
  9
$DIMTOL
 70
     0
  9
$DIMLIM
 70
     0
  9
$DIMTIH
 70
     1
  9
$DIMTOH
 70
     1
  9
$DIMSE1
 70
     0
  9
$DIMSE2
 70
     0
  9
$DIMTAD
 70
     0
  9
$DIMZIN
 70
     0
  9
$DIMBLK
  1

  9
$DIMASO
 70
     1
  9
$DIMSHO
 70
     1
  9
$DIMPOST
  1

  9
$DIMAPOST
  1

  9
$DIMALT
 70
     0
  9
$DIMALTD
 70
     2
  9
$DIMALTF
 40
25.399999999999999
  9
$DIMLFAC
 40
1.0
  9
$DIMTOFL
 70
     0
  9
$DIMTVP
 40
0.0
  9
$DIMTIX
 70
     0
  9
$DIMSOXD
 70
     0
  9
$DIMSAH
 70
     0
  9
$DIMBLK1
  1

  9
$DIMBLK2
  1

  9
$DIMSTYLE
  2
STANDARD
  9
$DIMCLRD
 70
     0
  9
$DIMCLRE
 70
     0
  9
$DIMCLRT
 70
     0
  9
$DIMTFAC
 40
1.0
  9
$DIMGAP
 40
0.09
  9
$LUNITS
 70
     2
  9
$LUPREC
 70
     4
  9
$SKETCHINC
 40
0.1
  9
$FILLETRAD
 40
0.0
  9
$AUNITS
 70
     0
  9
$AUPREC
 70
     0
  9
$MENU
  1
.
  9
$ELEVATION
 40
0.0
  9
$PELEVATION
 40
0.0
  9
$THICKNESS
 40
0.0
  9
$LIMCHECK
 70
     0
  9
$BLIPMODE
 70
     0
  9
$CHAMFERA
 40
0.0
  9
$CHAMFERB
 40
0.0
  9
$SKPOLY
 70
     0
  9
$TDCREATE
 40
2459060.4443761348
  9
$TDUPDATE
 40
2459062.5071821879
  9
$TDINDWG
 40
0.0077310648
  9
$TDUSRTIMER
 40
0.0077310301
  9
$USRTIMER
 70
     1
  9
$ANGBASE
 50
0.0
  9
$ANGDIR
 70
     0
  9
$PDMODE
 70
     0
  9
$PDSIZE
 40
0.0
  9
$PLINEWID
 40
0.0
  9
$COORDS
 70
     1
  9
$SPLFRAME
 70
     0
  9
$SPLINETYPE
 70
     6
  9
$SPLINESEGS
 70
     8
  9
$ATTDIA
 70
     1
  9
$ATTREQ
 70
     1
  9
$HANDLING
 70
     1
  9
$HANDSEED
  5
689
  9
$SURFTAB1
 70
     6
  9
$SURFTAB2
 70
     6
  9
$SURFTYPE
 70
     6
  9
$SURFU
 70
     6
  9
$SURFV
 70
     6
  9
$UCSNAME
  2

  9
$UCSORG
 10
0.0
 20
0.0
 30
0.0
  9
$UCSXDIR
 10
1.0
 20
0.0
 30
0.0
  9
$UCSYDIR
 10
0.0
 20
1.0
 30
0.0
  9
$PUCSNAME
  2

  9
$PUCSORG
 10
0.0
 20
0.0
 30
0.0
  9
$PUCSXDIR
 10
1.0
 20
0.0
 30
0.0
  9
$PUCSYDIR
 10
0.0
 20
1.0
 30
0.0
  9
$USERI1
 70
     0
  9
$USERI2
 70
     0
  9
$USERI3
 70
     0
  9
$USERI4
 70
     0
  9
$USERI5
 70
     0
  9
$USERR1
 40
0.0
  9
$USERR2
 40
0.0
  9
$USERR3
 40
0.0
  9
$USERR4
 40
0.0
  9
$USERR5
 40
0.0
  9
$WORLDVIEW
 70
     1
  9
$SHADEDGE
 70
     3
  9
$SHADEDIF
 70
    70
  9
$TILEMODE
 70
     1
  9
$MAXACTVP
 70
    64
  9
$PLIMCHECK
 70
     0
  9
$PEXTMIN
 10
0.0
 20
0.0
 30
0.0
  9
$PEXTMAX
 10
0.0
 20
0.0
 30
0.0
  9
$PLIMMIN
 10
0.0
 20
0.0
  9
$PLIMMAX
 10
12.0
 20
9.0
  9
$UNITMODE
 70
     0
  9
$VISRETAIN
 70
     1
  9
$PLINEGEN
 70
     0
  9
$PSLTSCALE
 70
     1
  0
ENDSEC
  0
SECTION
  2
TABLES
  0
TABLE
  2
VPORT
 70
     1
  0
VPORT
  2
*ACTIVE
 70
     0
 10
0.0
 20
0.0
 11
1.0
 21
1.0
 12
12.8186153164514
 22
3.8341061721218841
 13
0.0
 23
0.0
 14
0.5
 24
0.5
 15
0.5
 25
0.5
 16
0.0
 26
0.0
 36
1.0
 17
0.0
 27
0.0
 37
0.0
 40
36.296704315813052
 41
2.2927120669056151
 42
50.0
 43
0.0
 44
0.0
 50
0.0
 51
0.0
 71
     0
 72
  1000
 73
     1
 74
     3
 75
     0
 76
     1
 77
     0
 78
     0
  0
ENDTAB
  0
TABLE
  2
LTYPE
 70
     3
  0
LTYPE
  2
CONTINUOUS
 70
     0
  3
Solid line
 72
    65
 73
     0
 40
0.0
  0
LTYPE
  2
CENTERX2
 70
     0
  3
Center (2x) ________  __  ________  __  _____
 72
    65
 73
     4
 40
0.8
 49
0.5
 49
-0.1
 49
0.1
 49
-0.1
  0
ENDTAB
  0
TABLE
  2
LAYER
 70
     2
  0
LAYER
  2
0
 70
     0
 62
     7
  6
CONTINUOUS
  0
LAYER
  2
DEFPOINTS
 70
     0
 62
     7
  6
CONTINUOUS
  0
ENDTAB
  0
TABLE
  2
STYLE
 70
     3
  0
STYLE
  2
STANDARD
 70
     0
 40
0.0
 41
1.0
 50
0.0
 71
     0
 42
0.2
  3
txt
  4

  0
STYLE
  2
ANNOTATIVE
 70
     0
 40
0.0
 41
1.0
 50
0.0
 71
     0
 42
0.2
  3
txt
  4

  0
STYLE
  2
SLDTEXTSTYLE2
 70
     0
 40
0.0
 41
0.75
 50
0.0
 71
     0
 42
0.1
  3
TXT
  4

  0
ENDTAB
  0
TABLE
  2
VIEW
 70
     0
  0
ENDTAB
  0
TABLE
  2
UCS
 70
     0
  0
ENDTAB
  0
TABLE
  2
APPID
 70
     9
  0
APPID
  2
ACAD
 70
     0
  0
APPID
  2
ACADANNOTATIVE
 70
     0
  0
APPID
  2
ACADANNOPO
 70
     0
  0
APPID
  2
ACAD_DSTYLE_DIMJAG
 70
     0
  0
APPID
  2
ACAD_DSTYLE_DIMTALN
 70
     0
  0
APPID
  2
ACAD_MLEADERVER
 70
     0
  0
APPID
  2
ACAD_NAV_VCDISPLAY
 70
     0
  0
APPID
  2
ACAD_EXEMPT_FROM_CAD_STANDARDS
 70
     0
  0
APPID
  2
ACAD_DSTYLE_DIMRADIAL_EXTENSION
 70
     0
  0
ENDTAB
  0
TABLE
  2
DIMSTYLE
 70
     7
  0
DIMSTYLE
  2
STANDARD
 70
     0
  3

  4

  5

  6

  7

 40
1.0
 41
0.18
 42
0.0625
 43
0.38
 44
0.18
 45
0.0
 46
0.0
 47
0.0
 48
0.0
140
0.18
141
0.09
142
0.0
143
25.399999999999999
144
1.0
145
0.0
146
1.0
147
0.09
 71
     0
 72
     0
 73
     1
 74
     1
 75
     0
 76
     0
 77
     0
 78
     0
170
     0
171
     2
172
     0
173
     0
174
     0
175
     0
176
     0
177
     0
178
     0
  0
DIMSTYLE
  2
ANNOTATIVE
 70
     0
  3

  4

  5

  6

  7

 40
0.0
 41
0.18
 42
0.0625
 43
0.38
 44
0.18
 45
0.0
 46
0.0
 47
0.0
 48
0.0
140
0.18
141
0.09
142
0.0
143
25.399999999999999
144
1.0
145
0.0
146
1.0
147
0.09
 71
     0
 72
     0
 73
     1
 74
     1
 75
     0
 76
     0
 77
     0
 78
     0
170
     0
171
     2
172
     0
173
     0
174
     0
175
     0
176
     0
177
     0
178
     0
  0
DIMSTYLE
  2
SLDDIMSTYLE0
 70
     0
  3

  4

  5

  6

  7

 40
1.0
 41
0.078
 42
0.0625
 43
0.38
 44
0.0
 45
0.000000001
 46
0.0
 47
0.0
 48
0.0
140
0.1
141
0.09
142
0.0
143
25.399999999999999
144
3.0
145
0.0
146
1.0
147
0.025
 71
     0
 72
     0
 73
     1
 74
     1
 75
     0
 76
     0
 77
     0
 78
    12
170
     0
171
     2
172
     1
173
     1
174
     0
175
     0
176
     0
177
     0
178
     0
  0
DIMSTYLE
  2
SLDDIMSTYLE1
 70
     0
  3

  4

  5

  6

  7

 40
1.0
 41
0.078
 42
0.0625
 43
0.38
 44
0.0
 45
0.000000001
 46
0.0
 47
0.0
 48
0.0
140
0.1
141
0.09
142
0.0
143
25.399999999999999
144
3.0
145
0.0
146
1.0
147
0.025
 71
     0
 72
     0
 73
     1
 74
     1
 75
     0
 76
     0
 77
     0
 78
    12
170
     0
171
     2
172
     0
173
     1
174
     0
175
     0
176
     0
177
     0
178
     0
  0
DIMSTYLE
  2
SLDDIMSTYLE2
 70
     0
  3

  4

  5

  6

  7

 40
1.0
 41
0.078
 42
0.0625
 43
0.38
 44
0.0
 45
0.000000001
 46
0.0
 47
0.0
 48
0.0
140
0.1
141
0.09
142
0.0
143
25.399999999999999
144
3.0
145
0.0
146
1.0
147
0.025
 71
     0
 72
     0
 73
     1
 74
     1
 75
     0
 76
     0
 77
     0
 78
     4
170
     0
171
     2
172
     0
173
     1
174
     0
175
     0
176
     0
177
     0
178
     0
  0
DIMSTYLE
  2
SLDDIMSTYLE3
 70
     0
  3

  4

  5

  6

  7

 40
1.0
 41
0.078
 42
0.0625
 43
0.38
 44
0.0
 45
0.000000001
 46
0.0
 47
0.0
 48
0.0
140
0.1
141
0.0
142
0.0
143
25.399999999999999
144
3.0
145
0.0
146
1.0
147
0.025
 71
     0
 72
     0
 73
     1
 74
     1
 75
     0
 76
     0
 77
     0
 78
     4
170
     0
171
     2
172
     0
173
     1
174
     0
175
     0
176
     0
177
     0
178
     0
  0
ENDTAB
  0
ENDSEC
  0
SECTION
  2
BLOCKS
  0
BLOCK
  8
0
  2
$MODEL_SPACE
 70
     0
 10
0.0
 20
0.0
 30
0.0
  3
$MODEL_SPACE
  1

  0
ENDBLK
  5
56C
  8
0
  0
BLOCK
 67
     1
  8
0
  2
$PAPER_SPACE
 70
     0
 10
0.0
 20
0.0
 30
0.0
  3
$PAPER_SPACE
  1

  0
ENDBLK
  5
568
 67
     1
  8
0
  0
BLOCK
  8
0
  2
SW_RADIAL_DIMENSION_0
 70
     0
 10
0.0
 20
0.0
 30
0.0
  3
SW_RADIAL_DIMENSION_0
  1

  0
SOLID
  5
1EB
  8
0
  6
CONTINUOUS
 62
     0
 10
1.630375509899999
 20
0.4069258408
 30
0.0
 11
1.553665184799998
 21
0.3877288092
 31
0.0
 12
1.5640377531
 22
0.3638874622
 32
0.0
 13
1.5640377531
 23
0.3638874622
 33
0.0
  0
LINE
  5
1EC
  8
0
  6
CONTINUOUS
 62
     0
 10
1.630375509899999
 20
0.4069258408
 30
0.0
 11
0.8774999693000001
 21
0.0793750097
 31
0.0
  0
LINE
  5
1ED
  8
0
  6
CONTINUOUS
 62
     0
 10
0.8774999693000001
 20
0.0793750097
 30
0.0
 11
0.7008333326000003
 21
0.0793750097
 31
0.0
  0
INSERT
  5
1EE
  8
0
  2
*U3
 10
0.0
 20
0.0
 30
0.0
  0
INSERT
  5
1EF
  8
0
  2
*U4
 10
0.0
 20
0.0
 30
0.0
  0
ENDBLK
  5
1F0
  8
0
  0
BLOCK
  8
0
  2
*U3
 70
     1
 10
0.0
 20
0.0
 30
0.0
  3
*U3
  1

  0
TEXT
  5
492
  8
0
 62
     0
 10
0.0
 20
0.028906774
 30
0.0
 40
0.1
  1
HOLE FOR
 41
0.75
  7
SLDTEXTSTYLE2
  0
ENDBLK
  5
494
  8
0
  0
BLOCK
  8
0
  2
*U4
 70
     1
 10
0.0
 20
0.0
 30
0.0
  3
*U4
  1

  0
TEXT
  5
496
  8
0
 62
     0
 10
-0.1079166367
 20
-0.1298432271
 30
0.0
 40
0.1
  1
#8-32 SCREW
 41
0.75
  7
SLDTEXTSTYLE2
  0
ENDBLK
  5
498
  8
0
  0
BLOCK
  8
0
  2
_D
 70
     0
 10
0.0
 20
0.0
 30
0.0
  3
_D
  1

  0
LINE
  5
1F3
  8
0
 62
     0
 10
3.0734843405999981
 20
3.5836624258000001
 30
0.0
 11
3.0734843405999981
 21
2.9724616383999991
 31
0.0
  0
LINE
  5
1F4
  8
0
 62
     0
 10
3.1693364375000002
 20
4.263662425799998
 30
0.0
 11
3.1693364375000002
 21
2.9724616383999991
 31
0.0
  0
LINE
  5
1F5
  8
0
 62
     0
 10
3.2473364375
 20
2.9724616383999991
 30
0.0
 11
3.325336437499999
 21
2.9724616383999991
 31
0.0
  0
LINE
  5
1F6
  8
0
 62
     0
 10
2.9954843406
 20
2.9724616383999991
 30
0.0
 11
2.782002622299999
 21
2.9724616383999991
 31
0.0
  0
LINE
  5
1F7
  8
0
 62
     0
 10
3.1693364375000002
 20
2.9724616383999991
 30
0.0
 11
3.0734843405999981
 21
2.9724616383999991
 31
0.0
  0
SOLID
  5
1F8
  8
0
 62
     0
 10
3.2473364375
 20
2.9854616383999981
 30
0.0
 11
3.2473364375
 21
2.9594616383999992
 31
0.0
 12
3.1693364375000002
 22
2.9724616383999991
 32
0.0
 13
3.1693364375000002
 23
2.9724616383999991
 33
0.0
  0
SOLID
  5
1F9
  8
0
 62
     0
 10
2.9954843406
 20
2.9854616383999981
 30
0.0
 11
2.9954843406
 21
2.9594616383999992
 31
0.0
 12
3.0734843405999981
 22
2.9724616383999991
 32
0.0
 13
3.0734843405999981
 23
2.9724616383999991
 33
0.0
  0
INSERT
  5
1FA
  8
0
  2
*U6
 10
0.0
 20
0.0
 30
0.0
  0
POINT
  5
1FB
  8
DEFPOINTS
 62
     0
 10
3.0734843405999981
 20
3.6461624258000001
 30
0.0
  0
POINT
  5
1FC
  8
DEFPOINTS
 62
     0
 10
3.1693364375000002
 20
4.326162425799998
 30
0.0
  0
POINT
  5
1FD
  8
DEFPOINTS
 62
     0
 10
3.1693364375000002
 20
2.9724616383999991
 30
0.0
  0
ENDBLK
  5
1FE
  8
0
  0
BLOCK
  8
0
  2
*U6
 70
     1
 10
0.0
 20
0.0
 30
0.0
  3
*U6
  1

  0
TEXT
  5
49A
  8
0
 62
     0
 10
2.532002622299999
 20
2.922461638399998
 30
0.0
 40
0.1
  1
.288
 41
0.75
  7
SLDTEXTSTYLE2
  0
ENDBLK
  5
49C
  8
0
  0
BLOCK
  8
0
  2
_D_1
 70
     0
 10
0.0
 20
0.0
 30
0.0
  3
_D_1
  1

  0
LINE
  5
201
  8
0
 62
     0
 10
3.1693364375000002
 20
4.263662425799998
 30
0.0
 11
3.1693364375000002
 21
3.1617874252
 31
0.0
  0
LINE
  5
202
  8
0
 62
     0
 10
4.4918176738999991
 20
3.3995145226999992
 30
0.0
 11
4.4918176738999991
 21
3.1617874252
 31
0.0
  0
LINE
  5
203
  8
0
 62
     0
 10
3.2473364375
 20
3.1617874252
 30
0.0
 11
3.6555770556999989
 21
3.1617874252
 31
0.0
  0
LINE
  5
204
  8
0
 62
     0
 10
4.4138176738999979
 20
3.1617874252
 30
0.0
 11
4.005577055699999
 21
3.1617874252
 31
0.0
  0
SOLID
  5
205
  8
0
 62
     0
 10
3.2473364375
 20
3.1747874251999981
 30
0.0
 11
3.2473364375
 21
3.1487874252000001
 31
0.0
 12
3.1693364375000002
 22
3.1617874252
 32
0.0
 13
3.1693364375000002
 23
3.1617874252
 33
0.0
  0
SOLID
  5
206
  8
0
 62
     0
 10
4.4138176738999979
 20
3.1747874251999981
 30
0.0
 11
4.4138176738999979
 21
3.1487874252000001
 31
0.0
 12
4.4918176738999991
 22
3.1617874252
 32
0.0
 13
4.4918176738999991
 23
3.1617874252
 33
0.0
  0
INSERT
  5
207
  8
0
  2
*U8
 10
0.0
 20
0.0
 30
0.0
  0
POINT
  5
208
  8
DEFPOINTS
 62
     0
 10
3.1693364375000002
 20
4.326162425799998
 30
0.0
  0
POINT
  5
209
  8
DEFPOINTS
 62
     0
 10
4.4918176738999991
 20
3.4620145226999992
 30
0.0
  0
POINT
  5
20A
  8
DEFPOINTS
 62
     0
 10
4.4918176738999991
 20
3.1617874252
 30
0.0
  0
ENDBLK
  5
20B
  8
0
  0
BLOCK
  8
0
  2
*U8
 70
     1
 10
0.0
 20
0.0
 30
0.0
  3
*U8
  1

  0
TEXT
  5
49E
  8
0
 62
     0
 10
3.6805770557000002
 20
3.111787425199998
 30
0.0
 40
0.1
  1
3.967
 41
0.75
  7
SLDTEXTSTYLE2
  0
ENDBLK
  5
4A0
  8
0
  0
BLOCK
  8
0
  2
_D_2
 70
     0
 10
0.0
 20
0.0
 30
0.0
  3
_D_2
  1

  0
LINE
  5
20E
  8
0
 62
     0
 10
4.4918176738999991
 20
3.3995145226999992
 30
0.0
 11
4.4918176738999991
 21
3.1617874252
 31
0.0
  0
LINE
  5
20F
  8
0
 62
     0
 10
6.6584843406000003
 20
3.3995145226999992
 30
0.0
 11
6.6584843406000003
 21
3.1617874252
 31
0.0
  0
LINE
  5
210
  8
0
 62
     0
 10
4.5698176739000003
 20
3.1617874252
 30
0.0
 11
5.4126510072
 21
3.1617874252
 31
0.0
  0
LINE
  5
211
  8
0
 62
     0
 10
6.5804843405999991
 20
3.1617874252
 30
0.0
 11
5.7376510072000002
 21
3.1617874252
 31
0.0
  0
SOLID
  5
212
  8
0
 62
     0
 10
4.5698176739000003
 20
3.1747874251999981
 30
0.0
 11
4.5698176739000003
 21
3.1487874252000001
 31
0.0
 12
4.4918176738999991
 22
3.1617874252
 32
0.0
 13
4.4918176738999991
 23
3.1617874252
 33
0.0
  0
SOLID
  5
213
  8
0
 62
     0
 10
6.5804843405999991
 20
3.1747874251999981
 30
0.0
 11
6.5804843405999991
 21
3.1487874252000001
 31
0.0
 12
6.6584843406000003
 22
3.1617874252
 32
0.0
 13
6.6584843406000003
 23
3.1617874252
 33
0.0
  0
INSERT
  5
214
  8
0
  2
*U10
 10
0.0
 20
0.0
 30
0.0
  0
POINT
  5
215
  8
DEFPOINTS
 62
     0
 10
4.4918176738999991
 20
3.4620145226999992
 30
0.0
  0
POINT
  5
216
  8
DEFPOINTS
 62
     0
 10
6.6584843406000003
 20
3.4620145226999992
 30
0.0
  0
POINT
  5
217
  8
DEFPOINTS
 62
     0
 10
6.6584843406000003
 20
3.1617874252
 30
0.0
  0
ENDBLK
  5
218
  8
0
  0
BLOCK
  8
0
  2
*U10
 70
     1
 10
0.0
 20
0.0
 30
0.0
  3
*U10
  1

  0
TEXT
  5
4A2
  8
0
 62
     0
 10
5.4376510072000004
 20
3.111787425199998
 30
0.0
 40
0.1
  1
6.500
 41
0.75
  7
SLDTEXTSTYLE2
  0
ENDBLK
  5
4A4
  8
0
  0
BLOCK
  8
0
  2
_D_3
 70
     0
 10
0.0
 20
0.0
 30
0.0
  3
_D_3
  1

  0
LINE
  5
21B
  8
0
 62
     0
 10
3.1693364375000002
 20
4.263662425799998
 30
0.0
 11
3.1693364375000002
 21
2.9724616383999991
 31
0.0
  0
LINE
  5
21C
  8
0
 62
     0
 10
7.9809655769000001
 20
4.263662425799998
 30
0.0
 11
7.9809655769000001
 21
2.9724616383999991
 31
0.0
  0
LINE
  5
21D
  8
0
 62
     0
 10
3.2473364375
 20
2.9724616383999991
 30
0.0
 11
5.3751510072000004
 21
2.9724616383999991
 31
0.0
  0
LINE
  5
21E
  8
0
 62
     0
 10
7.9029655768999989
 20
2.9724616383999991
 30
0.0
 11
5.775151007199999
 21
2.9724616383999991
 31
0.0
  0
SOLID
  5
21F
  8
0
 62
     0
 10
3.2473364375
 20
2.9854616383999981
 30
0.0
 11
3.2473364375
 21
2.9594616383999992
 31
0.0
 12
3.1693364375000002
 22
2.9724616383999991
 32
0.0
 13
3.1693364375000002
 23
2.9724616383999991
 33
0.0
  0
SOLID
  5
220
  8
0
 62
     0
 10
7.9029655768999989
 20
2.9854616383999981
 30
0.0
 11
7.9029655768999989
 21
2.9594616383999992
 31
0.0
 12
7.9809655769000001
 22
2.9724616383999991
 32
0.0
 13
7.9809655769000001
 23
2.9724616383999991
 33
0.0
  0
INSERT
  5
221
  8
0
  2
*U12
 10
0.0
 20
0.0
 30
0.0
  0
POINT
  5
222
  8
DEFPOINTS
 62
     0
 10
3.1693364375000002
 20
4.326162425799998
 30
0.0
  0
POINT
  5
223
  8
DEFPOINTS
 62
     0
 10
7.9809655769000001
 20
4.326162425799998
 30
0.0
  0
POINT
  5
224
  8
DEFPOINTS
 62
     0
 10
7.9809655769000001
 20
2.9724616383999991
 30
0.0
  0
ENDBLK
  5
225
  8
0
  0
BLOCK
  8
0
  2
*U12
 70
     1
 10
0.0
 20
0.0
 30
0.0
  3
*U12
  1

  0
TEXT
  5
4A6
  8
0
 62
     0
 10
5.400151007199999
 20
2.922461638399998
 30
0.0
 40
0.1
  1
14.435
 41
0.75
  7
SLDTEXTSTYLE2
  0
ENDBLK
  5
4A8
  8
0
  0
BLOCK
  8
0
  2
_D_4
 70
     0
 10
0.0
 20
0.0
 30
0.0
  3
_D_4
  1

  0
LINE
  5
228
  8
0
 62
     0
 10
7.8593176738999988
 20
3.366162425799998
 30
0.0
 11
8.6860184612999998
 21
3.366162425799998
 31
0.0
  0
LINE
  5
229
  8
0
 62
     0
 10
6.7209843406000003
 20
3.4620145226999992
 30
0.0
 11
8.6860184612999998
 21
3.4620145226999992
 31
0.0
  0
LINE
  5
22A
  8
0
 62
     0
 10
8.6860184612999998
 20
3.5400145226999991
 30
0.0
 11
8.6860184612999998
 21
3.6180145226999989
 31
0.0
  0
LINE
  5
22B
  8
0
 62
     0
 10
8.6860184612999998
 20
3.2881624257999991
 30
0.0
 11
8.6860184612999998
 21
3.1617874251999969
 31
0.0
  0
LINE
  5
22C
  8
0
 62
     0
 10
8.6860184612999998
 20
3.1617874251999969
 30
0.0
 11
8.6080184613000004
 21
3.1617874251999969
 31
0.0
  0
LINE
  5
22D
  8
0
 62
     0
 10
8.6860184612999998
 20
3.4620145226999992
 30
0.0
 11
8.6860184612999998
 21
3.366162425799998
 31
0.0
  0
SOLID
  5
22E
  8
0
 62
     0
 10
8.6730184612999999
 20
3.5400145226999991
 30
0.0
 11
8.6990184612999961
 21
3.5400145226999991
 31
0.0
 12
8.6860184612999998
 22
3.4620145226999992
 32
0.0
 13
8.6860184612999998
 23
3.4620145226999992
 33
0.0
  0
SOLID
  5
22F
  8
0
 62
     0
 10
8.6730184612999999
 20
3.2881624257999991
 30
0.0
 11
8.6990184612999961
 21
3.2881624257999991
 31
0.0
 12
8.6860184612999998
 22
3.366162425799998
 32
0.0
 13
8.6860184612999998
 23
3.366162425799998
 33
0.0
  0
INSERT
  5
230
  8
0
  2
*U14
 10
0.0
 20
0.0
 30
0.0
  0
POINT
  5
231
  8
DEFPOINTS
 62
     0
 10
7.7968176738999988
 20
3.366162425799998
 30
0.0
  0
POINT
  5
232
  8
DEFPOINTS
 62
     0
 10
6.6584843406000003
 20
3.4620145226999992
 30
0.0
  0
POINT
  5
233
  8
DEFPOINTS
 62
     0
 10
8.6860184612999998
 20
3.4620145226999992
 30
0.0
  0
ENDBLK
  5
234
  8
0
  0
BLOCK
  8
0
  2
*U14
 70
     1
 10
0.0
 20
0.0
 30
0.0
  3
*U14
  1

  0
TEXT
  5
4AA
  8
0
 62
     0
 10
8.3580184612999986
 20
3.111787425199998
 30
0.0
 40
0.1
  1
.288
 41
0.75
  7
SLDTEXTSTYLE2
  0
ENDBLK
  5
4AC
  8
0
  0
BLOCK
  8
0
  2
_D_5
 70
     0
 10
0.0
 20
0.0
 30
0.0
  3
_D_5
  1

  0
LINE
  5
237
  8
0
 62
     0
 10
6.7209843406000003
 20
3.4620145226999992
 30
0.0
 11
8.4705184612999975
 21
3.4620145226999992
 31
0.0
  0
LINE
  5
238
  8
0
 62
     0
 10
8.0434655768999992
 20
4.326162425799998
 30
0.0
 11
8.4705184613000011
 21
4.326162425799998
 31
0.0
  0
LINE
  5
239
  8
0
 62
     0
 10
8.4705184612999975
 20
3.5400145226999991
 30
0.0
 11
8.4705184612999975
 21
3.8190884742999982
 31
0.0
  0
LINE
  5
23A
  8
0
 62
     0
 10
8.4705184613000011
 20
4.2481624257999986
 30
0.0
 11
8.4705184612999975
 21
3.9690884742999981
 31
0.0
  0
SOLID
  5
23B
  8
0
 62
     0
 10
8.4575184612999976
 20
3.5400145226999991
 30
0.0
 11
8.4835184612999992
 21
3.5400145226999991
 31
0.0
 12
8.4705184612999975
 22
3.4620145226999992
 32
0.0
 13
8.4705184612999975
 23
3.4620145226999992
 33
0.0
  0
SOLID
  5
23C
  8
0
 62
     0
 10
8.4575184613000012
 20
4.2481624257999986
 30
0.0
 11
8.4835184612999992
 21
4.2481624257999986
 31
0.0
 12
8.4705184613000011
 22
4.326162425799998
 32
0.0
 13
8.4705184613000011
 23
4.326162425799998
 33
0.0
  0
INSERT
  5
23D
  8
0
  2
*U16
 10
0.0
 20
0.0
 30
0.0
  0
POINT
  5
23E
  8
DEFPOINTS
 62
     0
 10
6.6584843406000003
 20
3.4620145226999992
 30
0.0
  0
POINT
  5
23F
  8
DEFPOINTS
 62
     0
 10
7.9809655769000001
 20
4.326162425799998
 30
0.0
  0
POINT
  5
240
  8
DEFPOINTS
 62
     0
 10
8.4705184613000011
 20
4.326162425799998
 30
0.0
  0
ENDBLK
  5
241
  8
0
  0
BLOCK
  8
0
  2
*U16
 70
     1
 10
0.0
 20
0.0
 30
0.0
  3
*U16
  1

  0
TEXT
  5
4AE
  8
0
 62
     0
 10
8.3205184612999972
 20
3.8440884742999981
 30
0.0
 40
0.1
  1
2.592
 41
0.75
  7
SLDTEXTSTYLE2
  0
ENDBLK
  5
4B0
  8
0
  0
BLOCK
  8
0
  2
_D_6
 70
     0
 10
0.0
 20
0.0
 30
0.0
  3
_D_6
  1

  0
LINE
  5
244
  8
0
 62
     0
 10
8.0434655768999992
 20
4.326162425799998
 30
0.0
 11
8.4705184613000011
 21
4.326162425799998
 31
0.0
  0
LINE
  5
245
  8
0
 62
     0
 10
8.0434655768999992
 20
5.9094957590999986
 30
0.0
 11
8.4705184613000011
 21
5.9094957590999986
 31
0.0
  0
LINE
  5
246
  8
0
 62
     0
 10
8.4705184613000011
 20
4.4041624258000001
 30
0.0
 11
8.4705184613000011
 21
5.0428290923999981
 31
0.0
  0
LINE
  5
247
  8
0
 62
     0
 10
8.4705184613000011
 20
5.8314957590999992
 30
0.0
 11
8.4705184613000011
 21
5.1928290923999993
 31
0.0
  0
SOLID
  5
248
  8
0
 62
     0
 10
8.4575184613000012
 20
4.4041624258000001
 30
0.0
 11
8.4835184612999992
 21
4.4041624258000001
 31
0.0
 12
8.4705184613000011
 22
4.326162425799998
 32
0.0
 13
8.4705184613000011
 23
4.326162425799998
 33
0.0
  0
SOLID
  5
249
  8
0
 62
     0
 10
8.4575184613000012
 20
5.8314957590999992
 30
0.0
 11
8.4835184612999992
 21
5.8314957590999992
 31
0.0
 12
8.4705184613000011
 22
5.9094957590999986
 32
0.0
 13
8.4705184613000011
 23
5.9094957590999986
 33
0.0
  0
INSERT
  5
24A
  8
0
  2
*U18
 10
0.0
 20
0.0
 30
0.0
  0
POINT
  5
24B
  8
DEFPOINTS
 62
     0
 10
7.9809655769000001
 20
4.326162425799998
 30
0.0
  0
POINT
  5
24C
  8
DEFPOINTS
 62
     0
 10
7.9809655769000001
 20
5.9094957590999986
 30
0.0
  0
POINT
  5
24D
  8
DEFPOINTS
 62
     0
 10
8.4705184613000011
 20
5.9094957590999986
 30
0.0
  0
ENDBLK
  5
24E
  8
0
  0
BLOCK
  8
0
  2
*U18
 70
     1
 10
0.0
 20
0.0
 30
0.0
  3
*U18
  1

  0
TEXT
  5
4B2
  8
0
 62
     0
 10
8.3267684612999986
 20
5.0678290924000002
 30
0.0
 40
0.1
  1
4.750
 41
0.75
  7
SLDTEXTSTYLE2
  0
ENDBLK
  5
4B4
  8
0
  0
BLOCK
  8
0
  2
_D_7
 70
     0
 10
0.0
 20
0.0
 30
0.0
  3
_D_7
  1

  0
LINE
  5
251
  8
0
 62
     0
 10
6.7209843406000003
 20
3.4620145226999992
 30
0.0
 11
8.809576634199999
 21
3.4620145226999992
 31
0.0
  0
LINE
  5
252
  8
0
 62
     0
 10
6.7209843406000003
 20
6.7736436620999987
 30
0.0
 11
8.8095766342000008
 21
6.7736436620999987
 31
0.0
  0
LINE
  5
253
  8
0
 62
     0
 10
8.809576634199999
 20
3.5400145226999991
 30
0.0
 11
8.8095766342000008
 21
5.0428290923999981
 31
0.0
  0
LINE
  5
254
  8
0
 62
     0
 10
8.8095766342000008
 20
6.6956436621000002
 30
0.0
 11
8.8095766342000008
 21
5.1928290923999993
 31
0.0
  0
SOLID
  5
255
  8
0
 62
     0
 10
8.7965766341999991
 20
3.5400145226999991
 30
0.0
 11
8.8225766341999972
 21
3.5400145226999991
 31
0.0
 12
8.809576634199999
 22
3.4620145226999992
 32
0.0
 13
8.809576634199999
 23
3.4620145226999992
 33
0.0
  0
SOLID
  5
256
  8
0
 62
     0
 10
8.7965766341999991
 20
6.6956436621000002
 30
0.0
 11
8.8225766342000007
 21
6.6956436621000002
 31
0.0
 12
8.8095766342000008
 22
6.7736436620999987
 32
0.0
 13
8.8095766342000008
 23
6.7736436620999987
 33
0.0
  0
INSERT
  5
257
  8
0
  2
*U20
 10
0.0
 20
0.0
 30
0.0
  0
POINT
  5
258
  8
DEFPOINTS
 62
     0
 10
6.6584843406000003
 20
3.4620145226999992
 30
0.0
  0
POINT
  5
259
  8
DEFPOINTS
 62
     0
 10
6.6584843406000003
 20
6.7736436620999987
 30
0.0
  0
POINT
  5
25A
  8
DEFPOINTS
 62
     0
 10
8.8095766342000008
 20
6.7736436620999987
 30
0.0
  0
ENDBLK
  5
25B
  8
0
  0
BLOCK
  8
0
  2
*U20
 70
     1
 10
0.0
 20
0.0
 30
0.0
  3
*U20
  1

  0
TEXT
  5
4B6
  8
0
 62
     0
 10
8.6595766341999987
 20
5.0678290924000002
 30
0.0
 40
0.1
  1
9.935
 41
0.75
  7
SLDTEXTSTYLE2
  0
ENDBLK
  5
4B8
  8
0
  0
BLOCK
  8
0
  2
_D_8
 70
     0
 10
0.0
 20
0.0
 30
0.0
  3
_D_8
  1

  0
LINE
  5
25E
  8
0
 62
     0
 10
3.2909843406000001
 20
3.366162425799998
 30
0.0
 11
2.6797835532000001
 21
3.3661624257999989
 31
0.0
  0
LINE
  5
25F
  8
0
 62
     0
 10
3.2909843406000001
 20
6.8694957591000003
 30
0.0
 11
2.6797835532000001
 21
6.8694957591000003
 31
0.0
  0
LINE
  5
260
  8
0
 62
     0
 10
2.6797835532000001
 20
3.4441624258000001
 30
0.0
 11
2.6797835532000001
 21
5.0428290923999981
 31
0.0
  0
LINE
  5
261
  8
0
 62
     0
 10
2.6797835532000001
 20
6.7914957590999991
 30
0.0
 11
2.6797835532000001
 21
5.1928290923999993
 31
0.0
  0
SOLID
  5
262
  8
0
 62
     0
 10
2.6667835532000002
 20
3.4441624258000001
 30
0.0
 11
2.6927835531999991
 21
3.4441624258000001
 31
0.0
 12
2.6797835532000001
 22
3.3661624257999989
 32
0.0
 13
2.6797835532000001
 23
3.3661624257999989
 33
0.0
  0
SOLID
  5
263
  8
0
 62
     0
 10
2.666783553200001
 20
6.7914957590999991
 30
0.0
 11
2.6927835531999991
 21
6.7914957590999991
 31
0.0
 12
2.6797835532000001
 22
6.8694957591000003
 32
0.0
 13
2.6797835532000001
 23
6.8694957591000003
 33
0.0
  0
INSERT
  5
264
  8
0
  2
*U22
 10
0.0
 20
0.0
 30
0.0
  0
POINT
  5
265
  8
DEFPOINTS
 62
     0
 10
3.3534843406000001
 20
3.366162425799998
 30
0.0
  0
POINT
  5
266
  8
DEFPOINTS
 62
     0
 10
3.3534843406000001
 20
6.8694957591000003
 30
0.0
  0
POINT
  5
267
  8
DEFPOINTS
 62
     0
 10
2.6797835532000001
 20
6.8694957591000003
 30
0.0
  0
ENDBLK
  5
268
  8
0
  0
BLOCK
  8
0
  2
*U22
 70
     1
 10
0.0
 20
0.0
 30
0.0
  3
*U22
  1

  0
TEXT
  5
4BA
  8
0
 62
     0
 10
2.5297835532000001
 20
5.0678290924000002
 30
0.0
 40
0.1
  1
10.510
 41
0.75
  7
SLDTEXTSTYLE2
  0
ENDBLK
  5
4BC
  8
0
  0
BLOCK
  8
0
  2
_D_9
 70
     0
 10
0.0
 20
0.0
 30
0.0
  3
_D_9
  1

  0
LINE
  5
26B
  8
0
 62
     0
 10
3.0734843405999981
 20
6.6519957591000001
 30
0.0
 11
3.0734843405999981
 21
7.2631965464999988
 31
0.0
  0
LINE
  5
26C
  8
0
 62
     0
 10
8.0768176738999991
 20
6.6519957591000001
 30
0.0
 11
8.0768176738999991
 21
7.2631965464999988
 31
0.0
  0
LINE
  5
26D
  8
0
 62
     0
 10
3.1514843405999979
 20
7.2631965464999988
 30
0.0
 11
5.400151007199999
 21
7.2631965464999988
 31
0.0
  0
LINE
  5
26E
  8
0
 62
     0
 10
7.9988176738999979
 20
7.2631965464999988
 30
0.0
 11
5.7501510072000004
 21
7.2631965464999988
 31
0.0
  0
SOLID
  5
26F
  8
0
 62
     0
 10
3.1514843405999979
 20
7.2761965464999978
 30
0.0
 11
3.1514843405999979
 21
7.2501965464999989
 31
0.0
 12
3.0734843405999981
 22
7.2631965464999988
 32
0.0
 13
3.0734843405999981
 23
7.2631965464999988
 33
0.0
  0
SOLID
  5
270
  8
0
 62
     0
 10
7.9988176738999979
 20
7.2761965464999978
 30
0.0
 11
7.9988176738999979
 21
7.2501965464999989
 31
0.0
 12
8.0768176738999991
 22
7.2631965464999988
 32
0.0
 13
8.0768176738999991
 23
7.2631965464999988
 33
0.0
  0
INSERT
  5
271
  8
0
  2
*U24
 10
0.0
 20
0.0
 30
0.0
  0
POINT
  5
272
  8
DEFPOINTS
 62
     0
 10
3.0734843405999981
 20
6.5894957591000001
 30
0.0
  0
POINT
  5
273
  8
DEFPOINTS
 62
     0
 10
8.0768176738999991
 20
6.5894957591000001
 30
0.0
  0
POINT
  5
274
  8
DEFPOINTS
 62
     0
 10
8.0768176738999991
 20
7.2631965464999988
 30
0.0
  0
ENDBLK
  5
275
  8
0
  0
BLOCK
  8
0
  2
*U24
 70
     1
 10
0.0
 20
0.0
 30
0.0
  3
*U24
  1

  0
TEXT
  5
4BE
  8
0
 62
     0
 10
5.4251510072000002
 20
7.2131965464999981
 30
0.0
 40
0.1
  1
15.010
 41
0.75
  7
SLDTEXTSTYLE2
  0
ENDBLK
  5
4C0
  8
0
  0
BLOCK
  8
0
  2
_D_10
 70
     0
 10
0.0
 20
0.0
 30
0.0
  3
_D_10
  1

  0
LINE
  5
278
  8
0
 62
     0
 10
2.541797449699998
 20
7.2631965464999988
 30
0.0
 11
2.642839123240277
 21
7.2631965464999988
 31
0.0
  0
LINE
  5
279
  8
0
 62
     0
 10
2.642839123240277
 20
7.2631965464999988
 30
0.0
 11
3.0936768842791431
 21
6.8357965623982411
 31
0.0
  0
INSERT
  5
27A
  8
0
  2
*U26
 10
0.0
 20
0.0
 30
0.0
  0
SOLID
  5
27B
  8
0
 62
     0
 10
3.102620768195516
 20
6.8452309113683842
 30
0.0
 11
3.084733000362768
 21
6.826362213428097
 31
0.0
 12
3.150282978099999
 22
6.7821332589000001
 32
0.0
 13
3.150282978099999
 23
6.7821332589000001
 33
0.0
  0
POINT
  5
27C
  8
DEFPOINTS
 62
     0
 10
3.150282978099999
 20
6.7821332589000001
 30
0.0
  0
POINT
  5
27D
  8
DEFPOINTS
 62
     0
 10
3.3534843406000001
 20
6.5894957591000001
 30
0.0
  0
ENDBLK
  5
27E
  8
0
  0
BLOCK
  8
0
  2
*U26
 70
     1
 10
0.0
 20
0.0
 30
0.0
  3
*U26
  1

  0
TEXT
  5
4C2
  8
0
 62
     0
 10
2.2292974497000002
 20
7.213196546499999
 30
0.0
 40
0.1
  1
R.840
 41
0.75
  7
SLDTEXTSTYLE2
  0
ENDBLK
  5
4C4
  8
0
  0
BLOCK
  8
0
  2
SW_CENTERMARKSYMBOL_0
 70
     0
 10
0.0
 20
0.0
 30
0.0
  3
SW_CENTERMARKSYMBOL_0
  1

  0
LINE
  5
281
  8
0
  6
CONTINUOUS
 62
     0
 10
0.0
 20
0.0
 30
0.0
 11
0.0
 21
0.0333333333
 31
0.0
  0
LINE
  5
282
  8
0
  6
CONTINUOUS
 62
     0
 10
0.0
 20
0.0
 30
0.0
 11
-0.0333333333
 21
0.0
 31
0.0
  0
LINE
  5
283
  8
0
  6
CONTINUOUS
 62
     0
 10
0.0
 20
0.0
 30
0.0
 11
0.0
 21
-0.0333333333
 31
0.0
  0
LINE
  5
284
  8
0
  6
CONTINUOUS
 62
     0
 10
0.0
 20
0.0
 30
0.0
 11
0.0333333333
 21
0.0
 31
0.0
  0
LINE
  5
285
  8
0
  6
CONTINUOUS
 62
     0
 10
-0.0666666667
 20
0.0
 30
0.0
 11
-0.0886666667
 21
0.0
 31
0.0
  0
LINE
  5
286
  8
0
  6
CONTINUOUS
 62
     0
 10
0.0
 20
-0.0666666667
 30
0.0
 11
0.0
 21
-0.0886666667
 31
0.0
  0
LINE
  5
287
  8
0
  6
CONTINUOUS
 62
     0
 10
4.811629139399999
 20
0.0
 30
0.0
 11
4.811629139399999
 21
0.0333333333
 31
0.0
  0
LINE
  5
288
  8
0
  6
CONTINUOUS
 62
     0
 10
4.811629139399999
 20
0.0
 30
0.0
 11
4.7782958061
 21
0.0
 31
0.0
  0
LINE
  5
289
  8
0
  6
CONTINUOUS
 62
     0
 10
4.811629139399999
 20
0.0
 30
0.0
 11
4.811629139399999
 21
-0.0333333333
 31
0.0
  0
LINE
  5
28A
  8
0
  6
CONTINUOUS
 62
     0
 10
4.811629139399999
 20
0.0
 30
0.0
 11
4.844962472699998
 21
0.0
 31
0.0
  0
LINE
  5
28B
  8
0
  6
CONTINUOUS
 62
     0
 10
4.811629139399999
 20
-0.0666666667
 30
0.0
 11
4.811629139399999
 21
-0.0886666667
 31
0.0
  0
LINE
  5
28C
  8
0
  6
CONTINUOUS
 62
     0
 10
4.8782958060999988
 20
0.0
 30
0.0
 11
4.900295806099999
 21
0.0
 31
0.0
  0
LINE
  5
28D
  8
0
  6
CONTINUOUS
 62
     0
 10
4.811629139399999
 20
1.583333333299999
 30
0.0
 11
4.811629139399999
 21
1.616666666699998
 31
0.0
  0
LINE
  5
28E
  8
0
  6
CONTINUOUS
 62
     0
 10
4.811629139399999
 20
1.583333333299999
 30
0.0
 11
4.7782958061
 21
1.583333333299999
 31
0.0
  0
LINE
  5
28F
  8
0
  6
CONTINUOUS
 62
     0
 10
4.811629139399999
 20
1.583333333299999
 30
0.0
 11
4.811629139399999
 21
1.55
 31
0.0
  0
LINE
  5
290
  8
0
  6
CONTINUOUS
 62
     0
 10
4.811629139399999
 20
1.583333333299999
 30
0.0
 11
4.844962472699998
 21
1.583333333299999
 31
0.0
  0
LINE
  5
291
  8
0
  6
CONTINUOUS
 62
     0
 10
4.811629139399999
 20
1.649999999999999
 30
0.0
 11
4.811629139399999
 21
1.6719999999999979
 31
0.0
  0
LINE
  5
292
  8
0
  6
CONTINUOUS
 62
     0
 10
4.8782958060999988
 20
1.583333333299999
 30
0.0
 11
4.900295806099999
 21
1.583333333299999
 31
0.0
  0
LINE
  5
293
  8
0
  6
CONTINUOUS
 62
     0
 10
0.0
 20
1.583333333299999
 30
0.0
 11
0.0
 21
1.616666666699998
 31
0.0
  0
LINE
  5
294
  8
0
  6
CONTINUOUS
 62
     0
 10
0.0
 20
1.583333333299999
 30
0.0
 11
-0.0333333333
 21
1.583333333299999
 31
0.0
  0
LINE
  5
295
  8
0
  6
CONTINUOUS
 62
     0
 10
0.0
 20
1.583333333299999
 30
0.0
 11
0.0
 21
1.55
 31
0.0
  0
LINE
  5
296
  8
0
  6
CONTINUOUS
 62
     0
 10
0.0
 20
1.583333333299999
 30
0.0
 11
0.0333333333
 21
1.583333333299999
 31
0.0
  0
LINE
  5
297
  8
0
  6
CONTINUOUS
 62
     0
 10
0.0
 20
1.649999999999999
 30
0.0
 11
0.0
 21
1.6719999999999979
 31
0.0
  0
LINE
  5
298
  8
0
  6
CONTINUOUS
 62
     0
 10
-0.0666666667
 20
1.583333333299999
 30
0.0
 11
-0.0886666667
 21
1.583333333299999
 31
0.0
  0
LINE
  5
299
  8
0
  6
CONTINUOUS
 62
     0
 10
1.3224812364
 20
-0.8641479029999999
 30
0.0
 11
1.3224812364
 21
-0.8308145697
 31
0.0
  0
LINE
  5
29A
  8
0
  6
CONTINUOUS
 62
     0
 10
1.3224812364
 20
-0.8641479029999999
 30
0.0
 11
1.289147902999999
 21
-0.8641479029999999
 31
0.0
  0
LINE
  5
29B
  8
0
  6
CONTINUOUS
 62
     0
 10
1.3224812364
 20
-0.8641479029999999
 30
0.0
 11
1.3224812364
 21
-0.8974812363999998
 31
0.0
  0
LINE
  5
29C
  8
0
  6
CONTINUOUS
 62
     0
 10
1.3224812364
 20
-0.8641479029999999
 30
0.0
 11
1.355814569699999
 21
-0.8641479029999999
 31
0.0
  0
LINE
  5
29D
  8
0
  6
CONTINUOUS
 62
     0
 10
1.2558145697
 20
-0.8641479029999999
 30
0.0
 11
1.2338145697
 21
-0.8641479029999999
 31
0.0
  0
LINE
  5
29E
  8
0
  6
CONTINUOUS
 62
     0
 10
1.3224812364
 20
-0.9308145697
 30
0.0
 11
1.3224812364
 21
-0.9528145696999999
 31
0.0
  0
LINE
  5
29F
  8
0
  6
CONTINUOUS
 62
     0
 10
3.4891479030000001
 20
-0.8641479029999999
 30
0.0
 11
3.4891479030000001
 21
-0.8308145697
 31
0.0
  0
LINE
  5
2A0
  8
0
  6
CONTINUOUS
 62
     0
 10
3.4891479030000001
 20
-0.8641479029999999
 30
0.0
 11
3.4558145696999989
 21
-0.8641479029999999
 31
0.0
  0
LINE
  5
2A1
  8
0
  6
CONTINUOUS
 62
     0
 10
3.4891479030000001
 20
-0.8641479029999999
 30
0.0
 11
3.4891479030000001
 21
-0.8974812363999998
 31
0.0
  0
LINE
  5
2A2
  8
0
  6
CONTINUOUS
 62
     0
 10
3.4891479030000001
 20
-0.8641479029999999
 30
0.0
 11
3.5224812363999991
 21
-0.8641479029999999
 31
0.0
  0
LINE
  5
2A3
  8
0
  6
CONTINUOUS
 62
     0
 10
3.4891479030000001
 20
-0.9308145697
 30
0.0
 11
3.4891479030000001
 21
-0.9528145696999999
 31
0.0
  0
LINE
  5
2A4
  8
0
  6
CONTINUOUS
 62
     0
 10
3.555814569699999
 20
-0.8641479029999999
 30
0.0
 11
3.5778145697000001
 21
-0.8641479029999999
 31
0.0
  0
LINE
  5
2A5
  8
0
  6
CONTINUOUS
 62
     0
 10
1.3224812364
 20
2.447481236399998
 30
0.0
 11
1.3224812364
 21
2.4808145697000001
 31
0.0
  0
LINE
  5
2A6
  8
0
  6
CONTINUOUS
 62
     0
 10
1.3224812364
 20
2.447481236399998
 30
0.0
 11
1.289147902999999
 21
2.447481236399998
 31
0.0
  0
LINE
  5
2A7
  8
0
  6
CONTINUOUS
 62
     0
 10
1.3224812364
 20
2.447481236399998
 30
0.0
 11
1.3224812364
 21
2.414147902999999
 31
0.0
  0
LINE
  5
2A8
  8
0
  6
CONTINUOUS
 62
     0
 10
1.3224812364
 20
2.447481236399998
 30
0.0
 11
1.355814569699999
 21
2.447481236399998
 31
0.0
  0
LINE
  5
2A9
  8
0
  6
CONTINUOUS
 62
     0
 10
1.3224812364
 20
2.514147903
 30
0.0
 11
1.3224812364
 21
2.5361479029999989
 31
0.0
  0
LINE
  5
2AA
  8
0
  6
CONTINUOUS
 62
     0
 10
1.2558145697
 20
2.447481236399998
 30
0.0
 11
1.2338145697
 21
2.447481236399998
 31
0.0
  0
LINE
  5
2AB
  8
0
  6
CONTINUOUS
 62
     0
 10
3.4891479030000001
 20
2.447481236399998
 30
0.0
 11
3.4891479030000001
 21
2.4808145697000001
 31
0.0
  0
LINE
  5
2AC
  8
0
  6
CONTINUOUS
 62
     0
 10
3.4891479030000001
 20
2.447481236399998
 30
0.0
 11
3.4558145696999989
 21
2.447481236399998
 31
0.0
  0
LINE
  5
2AD
  8
0
  6
CONTINUOUS
 62
     0
 10
3.4891479030000001
 20
2.447481236399998
 30
0.0
 11
3.4891479030000001
 21
2.414147902999999
 31
0.0
  0
LINE
  5
2AE
  8
0
  6
CONTINUOUS
 62
     0
 10
3.4891479030000001
 20
2.447481236399998
 30
0.0
 11
3.5224812363999991
 21
2.447481236399998
 31
0.0
  0
LINE
  5
2AF
  8
0
  6
CONTINUOUS
 62
     0
 10
3.4891479030000001
 20
2.514147903
 30
0.0
 11
3.4891479030000001
 21
2.5361479029999989
 31
0.0
  0
LINE
  5
2B0
  8
0
  6
CONTINUOUS
 62
     0
 10
3.555814569699999
 20
2.447481236399998
 30
0.0
 11
3.5778145697000001
 21
2.447481236399998
 31
0.0
  0
LINE
  5
2B1
  8
0
  6
CENTERX2
 62
     0
 10
0.0666666667
 20
0.0
 30
0.0
 11
4.7449624727000002
 21
0.0
 31
0.0
  0
LINE
  5
2B2
  8
0
  6
CENTERX2
 62
     0
 10
4.811629139399999
 20
0.0666666667
 30
0.0
 11
4.811629139399999
 21
1.5166666666999991
 31
0.0
  0
LINE
  5
2B3
  8
0
  6
CENTERX2
 62
     0
 10
0.0666666667
 20
1.583333333299999
 30
0.0
 11
4.7449624727000002
 21
1.583333333299999
 31
0.0
  0
LINE
  5
2B4
  8
0
  6
CENTERX2
 62
     0
 10
0.0
 20
0.0666666667
 30
0.0
 11
0.0
 21
1.5166666666999991
 31
0.0
  0
LINE
  5
2B5
  8
0
  6
CENTERX2
 62
     0
 10
1.389147903
 20
-0.8641479029999999
 30
0.0
 11
3.4224812363999981
 21
-0.8641479029999999
 31
0.0
  0
LINE
  5
2B6
  8
0
  6
CENTERX2
 62
     0
 10
1.3224812364
 20
-0.7974812364
 30
0.0
 11
1.3224812364
 21
2.3808145697
 31
0.0
  0
LINE
  5
2B7
  8
0
  6
CENTERX2
 62
     0
 10
1.389147903
 20
2.447481236399998
 30
0.0
 11
3.4224812363999981
 21
2.447481236399998
 31
0.0
  0
LINE
  5
2B8
  8
0
  6
CENTERX2
 62
     0
 10
3.4891479030000001
 20
-0.7974812364
 30
0.0
 11
3.4891479030000001
 21
2.3808145697
 31
0.0
  0
ENDBLK
  5
2B9
  8
0
  0
BLOCK
  8
0
  2
*D28
 70
     1
 10
0.0
 20
0.0
 30
0.0
  3
*D28
  1

  0
LINE
  5
39E
  8
0
 62
     0
 10
2.3006787737018981
 20
1.851351678364664
 30
0.0
 11
2.3006787737018981
 21
1.240150890964663
 31
0.0
  0
LINE
  5
39F
  8
0
 62
     0
 10
2.3965308706019002
 20
2.531351678364663
 30
0.0
 11
2.3965308706019002
 21
1.240150890964663
 31
0.0
  0
LINE
  5
3A0
  8
0
 62
     0
 10
2.4745308706019
 20
1.240150890964663
 30
0.0
 11
2.552530870601899
 21
1.240150890964663
 31
0.0
  0
LINE
  5
3A1
  8
0
 62
     0
 10
2.2226787737019
 20
1.240150890964663
 30
0.0
 11
2.009197055401899
 21
1.240150890964663
 31
0.0
  0
LINE
  5
3A2
  8
0
 62
     0
 10
2.3965308706019002
 20
1.240150890964663
 30
0.0
 11
2.3006787737018981
 21
1.240150890964663
 31
0.0
  0
SOLID
  5
3A3
  8
0
 62
     0
 10
2.4745308706019
 20
1.253150890964664
 30
0.0
 11
2.4745308706019
 21
1.227150890964664
 31
0.0
 12
2.3965308706019002
 22
1.240150890964663
 32
0.0
 13
2.3965308706019002
 23
1.240150890964663
 33
0.0
  0
SOLID
  5
3A4
  8
0
 62
     0
 10
2.2226787737019
 20
1.253150890964664
 30
0.0
 11
2.2226787737019
 21
1.227150890964664
 31
0.0
 12
2.3006787737018981
 22
1.240150890964663
 32
0.0
 13
2.3006787737018981
 23
1.240150890964663
 33
0.0
  0
INSERT
  5
3A5
  8
0
  2
*U29
 10
0.0
 20
0.0
 30
0.0
  0
POINT
  5
3A6
  8
DEFPOINTS
 62
     0
 10
2.3006787737018981
 20
1.913851678364664
 30
0.0
  0
POINT
  5
3A7
  8
DEFPOINTS
 62
     0
 10
2.3965308706019002
 20
2.593851678364663
 30
0.0
  0
POINT
  5
3A8
  8
DEFPOINTS
 62
     0
 10
2.3965308706019002
 20
1.240150890964663
 30
0.0
  0
ENDBLK
  5
312
  8
0
  0
BLOCK
  8
0
  2
*U29
 70
     1
 10
0.0
 20
0.0
 30
0.0
  3
*U29
  1

  0
TEXT
  5
4C6
  8
0
 62
     0
 10
1.7591970554019001
 20
1.1901508909646641
 30
0.0
 40
0.1
  1
.288
 41
0.75
  7
SLDTEXTSTYLE2
  0
ENDBLK
  5
4C8
  8
0
  0
BLOCK
  8
0
  2
*D30
 70
     1
 10
0.0
 20
0.0
 30
0.0
  3
*D30
  1

  0
LINE
  5
3A9
  8
0
 62
     0
 10
2.3965308706019002
 20
2.531351678364663
 30
0.0
 11
2.3965308706019002
 21
1.429476677764665
 31
0.0
  0
LINE
  5
3AA
  8
0
 62
     0
 10
3.7190121070018991
 20
1.6672037752646629
 30
0.0
 11
3.7190121070018991
 21
1.429476677764665
 31
0.0
  0
LINE
  5
3AB
  8
0
 62
     0
 10
2.4745308706019
 20
1.429476677764665
 30
0.0
 11
2.8827714888018989
 21
1.429476677764665
 31
0.0
  0
LINE
  5
3AC
  8
0
 62
     0
 10
3.6410121070019001
 20
1.429476677764665
 30
0.0
 11
3.232771488801899
 21
1.429476677764665
 31
0.0
  0
SOLID
  5
3AD
  8
0
 62
     0
 10
2.4745308706019
 20
1.442476677764664
 30
0.0
 11
2.4745308706019
 21
1.416476677764664
 31
0.0
 12
2.3965308706019002
 22
1.429476677764665
 32
0.0
 13
2.3965308706019002
 23
1.429476677764665
 33
0.0
  0
SOLID
  5
3AE
  8
0
 62
     0
 10
3.6410121070019001
 20
1.442476677764664
 30
0.0
 11
3.6410121070019001
 21
1.416476677764664
 31
0.0
 12
3.7190121070018991
 22
1.429476677764665
 32
0.0
 13
3.7190121070018991
 23
1.429476677764665
 33
0.0
  0
INSERT
  5
3AF
  8
0
  2
*U31
 10
0.0
 20
0.0
 30
0.0
  0
POINT
  5
3B0
  8
DEFPOINTS
 62
     0
 10
2.3965308706019002
 20
2.593851678364663
 30
0.0
  0
POINT
  5
3B1
  8
DEFPOINTS
 62
     0
 10
3.7190121070018991
 20
1.7297037752646629
 30
0.0
  0
POINT
  5
3B2
  8
DEFPOINTS
 62
     0
 10
3.7190121070018991
 20
1.429476677764665
 30
0.0
  0
ENDBLK
  5
320
  8
0
  0
BLOCK
  8
0
  2
*U31
 70
     1
 10
0.0
 20
0.0
 30
0.0
  3
*U31
  1

  0
TEXT
  5
4CA
  8
0
 62
     0
 10
2.9077714888019002
 20
1.3794766777646641
 30
0.0
 40
0.1
  1
3.967
 41
0.75
  7
SLDTEXTSTYLE2
  0
ENDBLK
  5
4CC
  8
0
  0
BLOCK
  8
0
  2
*D32
 70
     1
 10
0.0
 20
0.0
 30
0.0
  3
*D32
  1

  0
LINE
  5
3B3
  8
0
 62
     0
 10
3.7190121070018991
 20
1.6672037752646629
 30
0.0
 11
3.7190121070018991
 21
1.429476677764665
 31
0.0
  0
LINE
  5
3B4
  8
0
 62
     0
 10
5.8856787737018994
 20
1.6672037752646629
 30
0.0
 11
5.8856787737018994
 21
1.429476677764665
 31
0.0
  0
LINE
  5
3B5
  8
0
 62
     0
 10
3.7970121070018981
 20
1.429476677764665
 30
0.0
 11
4.6398454403019
 21
1.429476677764665
 31
0.0
  0
LINE
  5
3B6
  8
0
 62
     0
 10
5.8076787737018991
 20
1.429476677764665
 30
0.0
 11
4.9648454403019002
 21
1.429476677764665
 31
0.0
  0
SOLID
  5
3B7
  8
0
 62
     0
 10
3.7970121070018981
 20
1.442476677764664
 30
0.0
 11
3.7970121070018981
 21
1.416476677764664
 31
0.0
 12
3.7190121070018991
 22
1.429476677764665
 32
0.0
 13
3.7190121070018991
 23
1.429476677764665
 33
0.0
  0
SOLID
  5
3B8
  8
0
 62
     0
 10
5.8076787737018991
 20
1.442476677764664
 30
0.0
 11
5.8076787737018991
 21
1.416476677764664
 31
0.0
 12
5.8856787737018994
 22
1.429476677764665
 32
0.0
 13
5.8856787737018994
 23
1.429476677764665
 33
0.0
  0
INSERT
  5
3B9
  8
0
  2
*U33
 10
0.0
 20
0.0
 30
0.0
  0
POINT
  5
3BA
  8
DEFPOINTS
 62
     0
 10
3.7190121070018991
 20
1.7297037752646629
 30
0.0
  0
POINT
  5
3BB
  8
DEFPOINTS
 62
     0
 10
5.8856787737018994
 20
1.7297037752646629
 30
0.0
  0
POINT
  5
3BC
  8
DEFPOINTS
 62
     0
 10
5.8856787737018994
 20
1.429476677764665
 30
0.0
  0
ENDBLK
  5
32D
  8
0
  0
BLOCK
  8
0
  2
*U33
 70
     1
 10
0.0
 20
0.0
 30
0.0
  3
*U33
  1

  0
TEXT
  5
4CE
  8
0
 62
     0
 10
4.6648454403019004
 20
1.3794766777646641
 30
0.0
 40
0.1
  1
6.500
 41
0.75
  7
SLDTEXTSTYLE2
  0
ENDBLK
  5
4D0
  8
0
  0
BLOCK
  8
0
  2
*D34
 70
     1
 10
0.0
 20
0.0
 30
0.0
  3
*D34
  1

  0
LINE
  5
3BD
  8
0
 62
     0
 10
2.3965308706019002
 20
2.531351678364663
 30
0.0
 11
2.3965308706019002
 21
1.240150890964663
 31
0.0
  0
LINE
  5
3BE
  8
0
 62
     0
 10
7.2081600100019001
 20
2.531351678364663
 30
0.0
 11
7.2081600100019001
 21
1.240150890964663
 31
0.0
  0
LINE
  5
3BF
  8
0
 62
     0
 10
2.4745308706019
 20
1.240150890964663
 30
0.0
 11
4.6023454403019004
 21
1.240150890964663
 31
0.0
  0
LINE
  5
3C0
  8
0
 62
     0
 10
7.1301600100018989
 20
1.240150890964663
 30
0.0
 11
5.002345440301899
 21
1.240150890964663
 31
0.0
  0
SOLID
  5
3C1
  8
0
 62
     0
 10
2.4745308706019
 20
1.253150890964664
 30
0.0
 11
2.4745308706019
 21
1.227150890964664
 31
0.0
 12
2.3965308706019002
 22
1.240150890964663
 32
0.0
 13
2.3965308706019002
 23
1.240150890964663
 33
0.0
  0
SOLID
  5
3C2
  8
0
 62
     0
 10
7.1301600100018989
 20
1.253150890964664
 30
0.0
 11
7.1301600100018989
 21
1.227150890964664
 31
0.0
 12
7.2081600100019001
 22
1.240150890964663
 32
0.0
 13
7.2081600100019001
 23
1.240150890964663
 33
0.0
  0
INSERT
  5
3C3
  8
0
  2
*U35
 10
0.0
 20
0.0
 30
0.0
  0
POINT
  5
3C4
  8
DEFPOINTS
 62
     0
 10
2.3965308706019002
 20
2.593851678364663
 30
0.0
  0
POINT
  5
3C5
  8
DEFPOINTS
 62
     0
 10
7.2081600100019001
 20
2.593851678364663
 30
0.0
  0
POINT
  5
3C6
  8
DEFPOINTS
 62
     0
 10
7.2081600100019001
 20
1.240150890964663
 30
0.0
  0
ENDBLK
  5
33A
  8
0
  0
BLOCK
  8
0
  2
*U35
 70
     1
 10
0.0
 20
0.0
 30
0.0
  3
*U35
  1

  0
TEXT
  5
4D2
  8
0
 62
     0
 10
4.627345440301899
 20
1.1901508909646641
 30
0.0
 40
0.1
  1
14.435
 41
0.75
  7
SLDTEXTSTYLE2
  0
ENDBLK
  5
4D4
  8
0
  0
BLOCK
  8
0
  2
*D36
 70
     1
 10
0.0
 20
0.0
 30
0.0
  3
*D36
  1

  0
LINE
  5
3C7
  8
0
 62
     0
 10
7.0865121070018979
 20
1.6338516783646631
 30
0.0
 11
7.913212894401898
 21
1.6338516783646631
 31
0.0
  0
LINE
  5
3C8
  8
0
 62
     0
 10
5.9481787737018994
 20
1.7297037752646629
 30
0.0
 11
7.913212894401898
 21
1.729703775264662
 31
0.0
  0
LINE
  5
3C9
  8
0
 62
     0
 10
7.913212894401898
 20
1.8077037752646641
 30
0.0
 11
7.913212894401898
 21
1.8857037752646639
 31
0.0
  0
LINE
  5
3CA
  8
0
 62
     0
 10
7.913212894401898
 20
1.5558516783646641
 30
0.0
 11
7.913212894401898
 21
1.429476677764663
 31
0.0
  0
LINE
  5
3CB
  8
0
 62
     0
 10
7.913212894401898
 20
1.429476677764663
 30
0.0
 11
7.8352128944018968
 21
1.429476677764663
 31
0.0
  0
LINE
  5
3CC
  8
0
 62
     0
 10
7.913212894401898
 20
1.729703775264662
 30
0.0
 11
7.913212894401898
 21
1.6338516783646631
 31
0.0
  0
SOLID
  5
3CD
  8
0
 62
     0
 10
7.9002128944018981
 20
1.8077037752646641
 30
0.0
 11
7.926212894401897
 21
1.8077037752646641
 31
0.0
 12
7.913212894401898
 22
1.729703775264662
 32
0.0
 13
7.913212894401898
 23
1.729703775264662
 33
0.0
  0
SOLID
  5
3CE
  8
0
 62
     0
 10
7.9002128944018981
 20
1.5558516783646641
 30
0.0
 11
7.926212894401897
 21
1.5558516783646641
 31
0.0
 12
7.913212894401898
 22
1.6338516783646631
 32
0.0
 13
7.913212894401898
 23
1.6338516783646631
 33
0.0
  0
INSERT
  5
3CF
  8
0
  2
*U37
 10
0.0
 20
0.0
 30
0.0
  0
POINT
  5
3D0
  8
DEFPOINTS
 62
     0
 10
7.0240121070018979
 20
1.6338516783646631
 30
0.0
  0
POINT
  5
3D1
  8
DEFPOINTS
 62
     0
 10
5.8856787737018994
 20
1.7297037752646629
 30
0.0
  0
POINT
  5
3D2
  8
DEFPOINTS
 62
     0
 10
7.913212894401898
 20
1.729703775264662
 30
0.0
  0
ENDBLK
  5
347
  8
0
  0
BLOCK
  8
0
  2
*U37
 70
     1
 10
0.0
 20
0.0
 30
0.0
  3
*U37
  1

  0
TEXT
  5
4D6
  8
0
 62
     0
 10
7.5852128944018968
 20
1.3794766777646641
 30
0.0
 40
0.1
  1
.288
 41
0.75
  7
SLDTEXTSTYLE2
  0
ENDBLK
  5
4D8
  8
0
  0
BLOCK
  8
0
  2
*D38
 70
     1
 10
0.0
 20
0.0
 30
0.0
  3
*D38
  1

  0
LINE
  5
3D3
  8
0
 62
     0
 10
5.9481787737018994
 20
1.7297037752646629
 30
0.0
 11
7.6977128944018993
 21
1.7297037752646629
 31
0.0
  0
LINE
  5
3D4
  8
0
 62
     0
 10
7.2706600100019001
 20
2.593851678364663
 30
0.0
 11
7.6977128944019011
 21
2.593851678364663
 31
0.0
  0
LINE
  5
3D5
  8
0
 62
     0
 10
7.6977128944018993
 20
1.8077037752646641
 30
0.0
 11
7.6977128944019011
 21
2.0867777268646619
 31
0.0
  0
LINE
  5
3D6
  8
0
 62
     0
 10
7.6977128944019011
 20
2.5158516783646641
 30
0.0
 11
7.6977128944019011
 21
2.236777726864664
 31
0.0
  0
SOLID
  5
3D7
  8
0
 62
     0
 10
7.6847128944018994
 20
1.8077037752646641
 30
0.0
 11
7.7107128944018992
 21
1.8077037752646641
 31
0.0
 12
7.6977128944018993
 22
1.7297037752646629
 32
0.0
 13
7.6977128944018993
 23
1.7297037752646629
 33
0.0
  0
SOLID
  5
3D8
  8
0
 62
     0
 10
7.6847128944019012
 20
2.5158516783646641
 30
0.0
 11
7.7107128944019001
 21
2.5158516783646641
 31
0.0
 12
7.6977128944019011
 22
2.593851678364663
 32
0.0
 13
7.6977128944019011
 23
2.593851678364663
 33
0.0
  0
INSERT
  5
3D9
  8
0
  2
*U39
 10
0.0
 20
0.0
 30
0.0
  0
POINT
  5
3DA
  8
DEFPOINTS
 62
     0
 10
5.8856787737018994
 20
1.7297037752646629
 30
0.0
  0
POINT
  5
3DB
  8
DEFPOINTS
 62
     0
 10
7.2081600100019001
 20
2.593851678364663
 30
0.0
  0
POINT
  5
3DC
  8
DEFPOINTS
 62
     0
 10
7.6977128944019011
 20
2.593851678364663
 30
0.0
  0
ENDBLK
  5
356
  8
0
  0
BLOCK
  8
0
  2
*U39
 70
     1
 10
0.0
 20
0.0
 30
0.0
  3
*U39
  1

  0
TEXT
  5
4DA
  8
0
 62
     0
 10
7.5477128944018972
 20
2.111777726864664
 30
0.0
 40
0.1
  1
2.592
 41
0.75
  7
SLDTEXTSTYLE2
  0
ENDBLK
  5
4DC
  8
0
  0
BLOCK
  8
0
  2
*D40
 70
     1
 10
0.0
 20
0.0
 30
0.0
  3
*D40
  1

  0
LINE
  5
3DD
  8
0
 62
     0
 10
7.2706600100019001
 20
2.593851678364663
 30
0.0
 11
7.6977128944019011
 21
2.593851678364663
 31
0.0
  0
LINE
  5
3DE
  8
0
 62
     0
 10
7.2706600100019001
 20
4.1771850116646627
 30
0.0
 11
7.6977128944019011
 21
4.1771850116646627
 31
0.0
  0
LINE
  5
3DF
  8
0
 62
     0
 10
7.6977128944019011
 20
2.6718516783646642
 30
0.0
 11
7.6977128944019011
 21
3.3105183449646631
 31
0.0
  0
LINE
  5
3E0
  8
0
 62
     0
 10
7.6977128944019011
 20
4.0991850116646642
 30
0.0
 11
7.6977128944019011
 21
3.4605183449646622
 31
0.0
  0
SOLID
  5
3E1
  8
0
 62
     0
 10
7.6847128944019012
 20
2.6718516783646642
 30
0.0
 11
7.7107128944019001
 21
2.6718516783646642
 31
0.0
 12
7.6977128944019011
 22
2.593851678364663
 32
0.0
 13
7.6977128944019011
 23
2.593851678364663
 33
0.0
  0
SOLID
  5
3E2
  8
0
 62
     0
 10
7.6847128944019012
 20
4.0991850116646642
 30
0.0
 11
7.7107128944019001
 21
4.0991850116646642
 31
0.0
 12
7.6977128944019011
 22
4.1771850116646627
 32
0.0
 13
7.6977128944019011
 23
4.1771850116646627
 33
0.0
  0
INSERT
  5
3E3
  8
0
  2
*U41
 10
0.0
 20
0.0
 30
0.0
  0
POINT
  5
3E4
  8
DEFPOINTS
 62
     0
 10
7.2081600100019001
 20
2.593851678364663
 30
0.0
  0
POINT
  5
3E5
  8
DEFPOINTS
 62
     0
 10
7.2081600100019001
 20
4.1771850116646627
 30
0.0
  0
POINT
  5
3E6
  8
DEFPOINTS
 62
     0
 10
7.6977128944019011
 20
4.1771850116646627
 30
0.0
  0
ENDBLK
  5
363
  8
0
  0
BLOCK
  8
0
  2
*U41
 70
     1
 10
0.0
 20
0.0
 30
0.0
  3
*U41
  1

  0
TEXT
  5
4DE
  8
0
 62
     0
 10
7.5539628944018968
 20
3.335518344964663
 30
0.0
 40
0.1
  1
4.750
 41
0.75
  7
SLDTEXTSTYLE2
  0
ENDBLK
  5
4E0
  8
0
  0
BLOCK
  8
0
  2
*D42
 70
     1
 10
0.0
 20
0.0
 30
0.0
  3
*D42
  1

  0
LINE
  5
3E7
  8
0
 62
     0
 10
5.9481787737018994
 20
1.7297037752646629
 30
0.0
 11
8.0367710673018991
 21
1.729703775264662
 31
0.0
  0
LINE
  5
3E8
  8
0
 62
     0
 10
5.9481787737018994
 20
5.0413329146646637
 30
0.0
 11
8.0367710673019008
 21
5.0413329146646628
 31
0.0
  0
LINE
  5
3E9
  8
0
 62
     0
 10
8.0367710673018991
 20
1.8077037752646641
 30
0.0
 11
8.0367710673018991
 21
3.3105183449646631
 31
0.0
  0
LINE
  5
3EA
  8
0
 62
     0
 10
8.0367710673019008
 20
4.9633329146646643
 30
0.0
 11
8.0367710673018991
 21
3.4605183449646622
 31
0.0
  0
SOLID
  5
3EB
  8
0
 62
     0
 10
8.0237710673018992
 20
1.8077037752646641
 30
0.0
 11
8.0497710673018972
 21
1.8077037752646641
 31
0.0
 12
8.0367710673018991
 22
1.729703775264662
 32
0.0
 13
8.0367710673018991
 23
1.729703775264662
 33
0.0
  0
SOLID
  5
3EC
  8
0
 62
     0
 10
8.0237710673018992
 20
4.9633329146646643
 30
0.0
 11
8.0497710673019007
 21
4.9633329146646643
 31
0.0
 12
8.0367710673019008
 22
5.0413329146646628
 32
0.0
 13
8.0367710673019008
 23
5.0413329146646628
 33
0.0
  0
INSERT
  5
3ED
  8
0
  2
*U43
 10
0.0
 20
0.0
 30
0.0
  0
POINT
  5
3EE
  8
DEFPOINTS
 62
     0
 10
5.8856787737018994
 20
1.7297037752646629
 30
0.0
  0
POINT
  5
3EF
  8
DEFPOINTS
 62
     0
 10
5.8856787737018994
 20
5.0413329146646637
 30
0.0
  0
POINT
  5
3F0
  8
DEFPOINTS
 62
     0
 10
8.0367710673019008
 20
5.0413329146646628
 30
0.0
  0
ENDBLK
  5
370
  8
0
  0
BLOCK
  8
0
  2
*U43
 70
     1
 10
0.0
 20
0.0
 30
0.0
  3
*U43
  1

  0
TEXT
  5
4E2
  8
0
 62
     0
 10
7.8867710673018969
 20
3.335518344964663
 30
0.0
 40
0.1
  1
9.935
 41
0.75
  7
SLDTEXTSTYLE2
  0
ENDBLK
  5
4E4
  8
0
  0
BLOCK
  8
0
  2
*D44
 70
     1
 10
0.0
 20
0.0
 30
0.0
  3
*D44
  1

  0
LINE
  5
3F1
  8
0
 62
     0
 10
2.5181787737019001
 20
1.6338516783646631
 30
0.0
 11
1.9069779863019001
 21
1.6338516783646639
 31
0.0
  0
LINE
  5
3F2
  8
0
 62
     0
 10
2.5181787737019001
 20
5.1371850116646627
 30
0.0
 11
1.9069779863019001
 21
5.1371850116646636
 31
0.0
  0
LINE
  5
3F3
  8
0
 62
     0
 10
1.9069779863019001
 20
1.711851678364664
 30
0.0
 11
1.9069779863019001
 21
3.3105183449646631
 31
0.0
  0
LINE
  5
3F4
  8
0
 62
     0
 10
1.9069779863019001
 20
5.0591850116646651
 30
0.0
 11
1.9069779863019001
 21
3.460518344964663
 31
0.0
  0
SOLID
  5
3F5
  8
0
 62
     0
 10
1.8939779863018991
 20
1.711851678364664
 30
0.0
 11
1.9199779863018991
 21
1.711851678364664
 31
0.0
 12
1.9069779863019001
 22
1.6338516783646639
 32
0.0
 13
1.9069779863019001
 23
1.6338516783646639
 33
0.0
  0
SOLID
  5
3F6
  8
0
 62
     0
 10
1.8939779863019
 20
5.0591850116646651
 30
0.0
 11
1.9199779863018991
 21
5.0591850116646651
 31
0.0
 12
1.9069779863019001
 22
5.1371850116646636
 32
0.0
 13
1.9069779863019001
 23
5.1371850116646636
 33
0.0
  0
INSERT
  5
3F7
  8
0
  2
*U45
 10
0.0
 20
0.0
 30
0.0
  0
POINT
  5
3F8
  8
DEFPOINTS
 62
     0
 10
2.5806787737019001
 20
1.6338516783646631
 30
0.0
  0
POINT
  5
3F9
  8
DEFPOINTS
 62
     0
 10
2.5806787737019001
 20
5.1371850116646627
 30
0.0
  0
POINT
  5
3FA
  8
DEFPOINTS
 62
     0
 10
1.9069779863019001
 20
5.1371850116646636
 30
0.0
  0
ENDBLK
  5
37D
  8
0
  0
BLOCK
  8
0
  2
*U45
 70
     1
 10
0.0
 20
0.0
 30
0.0
  3
*U45
  1

  0
TEXT
  5
4E6
  8
0
 62
     0
 10
1.7569779863018991
 20
3.335518344964663
 30
0.0
 40
0.1
  1
10.510
 41
0.75
  7
SLDTEXTSTYLE2
  0
ENDBLK
  5
4E8
  8
0
  0
BLOCK
  8
0
  2
*D46
 70
     1
 10
0.0
 20
0.0
 30
0.0
  3
*D46
  1

  0
LINE
  5
3FB
  8
0
 62
     0
 10
2.3006787737018981
 20
4.9196850116646651
 30
0.0
 11
2.3006787737018981
 21
5.5308857990646629
 31
0.0
  0
LINE
  5
3FC
  8
0
 62
     0
 10
7.3040121070018991
 20
4.9196850116646651
 30
0.0
 11
7.3040121070018991
 21
5.5308857990646629
 31
0.0
  0
LINE
  5
3FD
  8
0
 62
     0
 10
2.378678773701898
 20
5.5308857990646629
 30
0.0
 11
4.627345440301899
 21
5.5308857990646629
 31
0.0
  0
LINE
  5
3FE
  8
0
 62
     0
 10
7.2260121070018979
 20
5.5308857990646629
 30
0.0
 11
4.9773454403019004
 21
5.5308857990646629
 31
0.0
  0
SOLID
  5
3FF
  8
0
 62
     0
 10
2.378678773701898
 20
5.5438857990646628
 30
0.0
 11
2.378678773701898
 21
5.517885799064663
 31
0.0
 12
2.3006787737018981
 22
5.5308857990646629
 32
0.0
 13
2.3006787737018981
 23
5.5308857990646629
 33
0.0
  0
SOLID
  5
400
  8
0
 62
     0
 10
7.2260121070018979
 20
5.5438857990646628
 30
0.0
 11
7.2260121070018979
 21
5.517885799064663
 31
0.0
 12
7.3040121070018991
 22
5.5308857990646629
 32
0.0
 13
7.3040121070018991
 23
5.5308857990646629
 33
0.0
  0
INSERT
  5
401
  8
0
  2
*U47
 10
0.0
 20
0.0
 30
0.0
  0
POINT
  5
402
  8
DEFPOINTS
 62
     0
 10
2.3006787737018981
 20
4.8571850116646651
 30
0.0
  0
POINT
  5
403
  8
DEFPOINTS
 62
     0
 10
7.3040121070018991
 20
4.8571850116646651
 30
0.0
  0
POINT
  5
404
  8
DEFPOINTS
 62
     0
 10
7.3040121070018991
 20
5.5308857990646629
 30
0.0
  0
ENDBLK
  5
38A
  8
0
  0
BLOCK
  8
0
  2
*U47
 70
     1
 10
0.0
 20
0.0
 30
0.0
  3
*U47
  1

  0
TEXT
  5
4EA
  8
0
 62
     0
 10
4.6523454403019002
 20
5.4808857990646631
 30
0.0
 40
0.1
  1
15.010
 41
0.75
  7
SLDTEXTSTYLE2
  0
ENDBLK
  5
4EC
  8
0
  0
BLOCK
  8
0
  2
*D48
 70
     1
 10
0.0
 20
0.0
 30
0.0
  3
*D48
  1

  0
LINE
  5
405
  8
0
 62
     0
 10
1.7689918828018989
 20
5.5308857990646638
 30
0.0
 11
1.8700335563421779
 21
5.5308857990646638
 31
0.0
  0
LINE
  5
406
  8
0
 62
     0
 10
1.8700335563421779
 20
5.5308857990646638
 30
0.0
 11
2.3208713173810431
 21
5.103485814962907
 31
0.0
  0
INSERT
  5
407
  8
0
  2
*U49
 10
0.0
 20
0.0
 30
0.0
  0
SOLID
  5
408
  8
0
 62
     0
 10
2.329815201297416
 20
5.1129201639330493
 30
0.0
 11
2.311927433464668
 21
5.0940514659927629
 31
0.0
 12
2.377477411201899
 22
5.0498225114646651
 32
0.0
 13
2.377477411201899
 23
5.0498225114646651
 33
0.0
  0
POINT
  5
409
  8
DEFPOINTS
 62
     0
 10
2.377477411201899
 20
5.0498225114646651
 30
0.0
  0
POINT
  5
40A
  8
DEFPOINTS
 62
     0
 10
2.580678773701901
 20
4.8571850116646651
 30
0.0
  0
ENDBLK
  5
397
  8
0
  0
BLOCK
  8
0
  2
*U49
 70
     1
 10
0.0
 20
0.0
 30
0.0
  3
*U49
  1

  0
TEXT
  5
4EE
  8
0
 62
     0
 10
1.4564918828018989
 20
5.480885799064664
 30
0.0
 40
0.1
  1
R.840
 41
0.75
  7
SLDTEXTSTYLE2
  0
ENDBLK
  5
4F0
  8
0
  0
BLOCK
  8
0
  2
*D50
 70
     1
 10
0.0
 20
0.0
 30
0.0
  3
*D50
  1

  0
LINE
  5
422
  8
0
 62
     0
 10
6.9133733535458566
 20
8.9872390744366424
 30
0.0
 11
6.7333733535458569
 21
8.9872390744366424
 31
0.0
  0
LINE
  5
423
  8
0
 62
     0
 10
6.7333733535458569
 20
8.9872390744366424
 30
0.0
 11
6.6303366553657561
 21
8.6194519182684388
 31
0.0
  0
INSERT
  5
424
  8
0
  2
*U51
 10
0.0
 20
0.0
 30
0.0
  0
SOLID
  5
425
  8
0
 62
     0
 10
6.6014488831164737
 20
8.6275449161353457
 30
0.0
 11
6.659224427615035
 21
8.6113589204015302
 31
0.0
 12
6.5817786681643211
 22
8.4461252847727604
 32
0.0
 13
6.5817786681643211
 23
8.4461252847727604
 33
0.0
  0
LINE
  5
426
  8
0
 62
     0
 10
6.4656787491910004
 20
8.3529622162256736
 30
0.0
 11
6.6456787491910001
 21
8.3529622162256736
 31
0.0
  0
LINE
  5
427
  8
0
 62
     0
 10
6.5556787491910011
 20
8.2629622162256737
 30
0.0
 11
6.5556787491910011
 21
8.4429622162256734
 31
0.0
  0
POINT
  5
428
  8
DEFPOINTS
 62
     0
 10
6.5817786681643211
 20
8.4461252847727604
 30
0.0
  0
POINT
  5
429
  8
DEFPOINTS
 62
     0
 10
6.529578830217682
 20
8.259799147678585
 30
0.0
  0
ENDBLK
  5
418
  8
0
  0
BLOCK
  8
0
  2
*U51
 70
     1
 10
0.0
 20
0.0
 30
0.0
  3
*U51
  1

  0
TEXT
  5
4F5
  8
0
 62
     0
 10
6.9931823576386281
 20
8.900861175391622
 30
0.0
 40
0.18
  1
Ø0.1935
  0
ENDBLK
  5
4F7
  8
0
  0
BLOCK
  8
0
  2
*D52
 70
     1
 10
0.0
 20
0.0
 30
0.0
  3
*D52
  1

  0
LINE
  5
438
  8
0
 62
     0
 10
5.0635811872269691
 20
11.44443161553755
 30
0.0
 11
4.8835811872269694
 21
11.44443161553755
 31
0.0
  0
LINE
  5
439
  8
0
 62
     0
 10
4.8835811872269694
 20
11.44443161553755
 30
0.0
 11
4.7683273536726141
 21
10.97569366915501
 31
0.0
  0
INSERT
  5
43A
  8
0
  2
*U53
 10
0.0
 20
0.0
 30
0.0
  0
SOLID
  5
43B
  8
0
 62
     0
 10
4.7391950645940604
 20
10.98285675040847
 30
0.0
 11
4.7974596427511651
 21
10.96853058790156
 31
0.0
 12
4.725348866151867
 22
10.8008999346837
 32
0.0
 13
4.725348866151867
 23
10.8008999346837
 33
0.0
  0
LINE
  5
43C
  8
0
 62
     0
 10
4.6122479283548801
 20
10.706948299336441
 30
0.0
 11
4.792247928354878
 21
10.706948299336441
 31
0.0
  0
LINE
  5
43D
  8
0
 62
     0
 10
4.702247928354879
 20
10.616948299336441
 30
0.0
 11
4.702247928354879
 21
10.796948299336441
 31
0.0
  0
POINT
  5
43E
  8
DEFPOINTS
 62
     0
 10
4.725348866151867
 20
10.8008999346837
 30
0.0
  0
POINT
  5
43F
  8
DEFPOINTS
 62
     0
 10
4.6791469905578911
 20
10.61299666398919
 30
0.0
  0
ENDBLK
  5
42E
  8
0
  0
BLOCK
  8
0
  2
*U53
 70
     1
 10
0.0
 20
0.0
 30
0.0
  3
*U53
  1

  0
TEXT
  5
4F9
  8
0
 62
     0
 10
5.1433901913197371
 20
11.35805371649252
 30
0.0
 40
0.18
  1
Ø0.1935
  0
ENDBLK
  5
4FB
  8
0
  0
BLOCK
  8
0
  2
*D56
 70
     1
 10
0.0
 20
0.0
 30
0.0
  3
*D56
  1

  0
LINE
  5
60D
  8
0
 62
     0
 10
16.335187781380501
 20
12.15073064421412
 30
0.0
 11
16.155187781380491
 21
12.15073064421412
 31
0.0
  0
LINE
  5
60E
  8
0
 62
     0
 10
16.155187781380491
 20
12.15073064421412
 30
0.0
 11
15.23975855555614
 21
10.96251507854933
 31
0.0
  0
INSERT
  5
60F
  8
0
  2
*U58
 10
0.0
 20
0.0
 30
0.0
  0
SOLID
  5
610
  8
0
 62
     0
 10
15.21599354130548
 20
10.9808242046253
 30
0.0
 11
15.2635235698068
 21
10.944205952473361
 31
0.0
 12
15.12990379910031
 22
10.81992499304536
 32
0.0
 13
15.12990379910031
 23
10.81992499304536
 33
0.0
  0
LINE
  5
611
  8
0
 62
     0
 10
14.52724825222726
 20
10.15450457229092
 30
0.0
 11
14.707248252227259
 21
10.15450457229092
 31
0.0
  0
LINE
  5
612
  8
0
 62
     0
 10
14.61724825222726
 20
10.06450457229092
 30
0.0
 11
14.61724825222726
 21
10.24450457229092
 31
0.0
  0
POINT
  5
613
  8
DEFPOINTS
 62
     0
 10
15.12990379910031
 20
10.81992499304536
 30
0.0
  0
POINT
  5
614
  8
DEFPOINTS
 62
     0
 10
14.61724825222726
 20
10.15450457229092
 30
0.0
  0
ENDBLK
  5
60C
  8
0
  0
BLOCK
  8
0
  2
*D57
 70
     1
 10
0.0
 20
0.0
 30
0.0
  3
*D57
  1

  0
LINE
  5
61E
  8
0
 62
     0
 10
5.0328068682665688
 20
11.138170482206981
 30
0.0
 11
4.852806868266569
 21
11.138170482206981
 31
0.0
  0
LINE
  5
61F
  8
0
 62
     0
 10
4.852806868266569
 20
11.138170482206981
 30
0.0
 11
4.7934732962981172
 21
10.968230706882119
 31
0.0
  0
INSERT
  5
620
  8
0
  2
*U59
 10
0.0
 20
0.0
 30
0.0
  0
SOLID
  5
621
  8
0
 62
     0
 10
4.7651500004106397
 20
10.97811963554353
 30
0.0
 11
4.821796592185593
 21
10.95834177822071
 31
0.0
 12
4.7341397243296637
 22
10.798290931557251
 32
0.0
 13
4.7341397243296637
 23
10.798290931557251
 33
0.0
  0
LINE
  5
622
  8
0
 62
     0
 10
4.6122479283548801
 20
10.70694829933645
 30
0.0
 11
4.7922479283548798
 21
10.70694829933645
 31
0.0
  0
LINE
  5
623
  8
0
 62
     0
 10
4.7022479283548799
 20
10.61694829933645
 30
0.0
 11
4.7022479283548799
 21
10.796948299336449
 31
0.0
  0
POINT
  5
624
  8
DEFPOINTS
 62
     0
 10
4.7341397243296637
 20
10.798290931557251
 30
0.0
  0
POINT
  5
625
  8
DEFPOINTS
 62
     0
 10
4.6703561323800962
 20
10.61560566711564
 30
0.0
  0
ENDBLK
  5
61D
  8
0
  0
BLOCK
  8
0
  2
*U58
 70
     1
 10
0.0
 20
0.0
 30
0.0
  3
*U58
  1

  0
TEXT
  5
679
  8
0
 62
     0
 10
16.425187781380501
 20
12.06073064421412
 30
0.0
 40
0.18
  1
R0.8400
  0
ENDBLK
  5
67B
  8
0
  0
BLOCK
  8
0
  2
*U59
 70
     1
 10
0.0
 20
0.0
 30
0.0
  3
*U59
  1

  0
TEXT
  5
686
  8
0
 62
     0
 10
5.1228068682665677
 20
11.048170482206981
 30
0.0
 40
0.18
  1
\U+22050.1935
  0
ENDBLK
  5
688
  8
0
  0
ENDSEC
  0
SECTION
  2
ENTITIES
  0
CIRCLE
  5
2EC
  8
0
 10
0.7348040895587649
 20
8.1145045056545531
 30
0.0
 40
0.0967500031603291
  0
CIRCLE
  5
2EE
  8
0
 10
11.202248140776661
 20
10.70694829933645
 30
0.0
 40
0.0967500031603264
  0
CIRCLE
  5
2F0
  8
0
 10
4.702247928354879
 20
10.70694829933645
 30
0.0
 40
0.0967500031603264
  0
CIRCLE
  5
2FE
  8
0
 10
4.702247928354879
 20
0.7720605566144326
 30
0.0
 40
0.0967500031603279
  0
CIRCLE
  5
2FF
  8
0
 10
15.169691979272789
 20
3.3645043505963219
 30
0.0
 40
0.0967500031603264
  0
CIRCLE
  5
300
  8
0
 10
15.169691979272789
 20
8.1145045056545531
 30
0.0
 40
0.0967500031603291
  0
CIRCLE
  5
301
  8
0
 10
11.202248140776661
 20
0.7720605566144326
 30
0.0
 40
0.0967500031603279
  0
CIRCLE
  5
302
  8
0
 10
0.7348040895587649
 20
3.3645043505963219
 30
0.0
 40
0.0967500031603264
  0
POLYLINE
  5
617
  8
0
 66
     1
 10
0.0
 20
0.0
 30
0.0
 70
     1
  0
VERTEX
  5
67C
  8
0
 10
15.42099803441578
 20
10.10950442812543
 30
0.0
 42
0.4142135623730951
  0
VERTEX
  5
67D
  8
0
 10
14.572248034415781
 20
10.958254428125439
 30
0.0
  0
VERTEX
  5
67E
  8
0
 10
1.3322480344157761
 20
10.958254428125439
 30
0.0
 42
0.4142135623730954
  0
VERTEX
  5
67F
  8
0
 10
0.4834980344157787
 20
10.10950442812543
 30
0.0
  0
VERTEX
  5
680
  8
0
 10
0.4834980344157814
 20
1.369504428125436
 30
0.0
 42
0.414213562373095
  0
VERTEX
  5
681
  8
0
 10
1.332248034415779
 20
0.5207544281254366
 30
0.0
  0
VERTEX
  5
682
  8
0
 10
14.572248034415781
 20
0.5207544281254357
 30
0.0
 42
0.4142135623730951
  0
VERTEX
  5
683
  8
0
 10
15.42099803441578
 20
1.369504428125436
 30
0.0
  0
SEQEND
  5
684
  8
0
  0
ENDSEC
  0
EOF
