  0
SECTION
  2
HEADER
  9
$ACADVER
  1
AC1009
  9
$INSBASE
 10
0.0
 20
0.0
 30
0.0
  9
$EXTMIN
 10
0.5807455545248204
 20
0.6189453126034124
 30
0.0
  9
$EXTMAX
 10
52.495088690118308
 20
12.62553844057193
 30
0.0
  9
$LIMMIN
 10
0.0
 20
0.0
  9
$LIMMAX
 10
12.0
 20
9.0
  9
$ORTHOMODE
 70
     1
  9
$REGENMODE
 70
     1
  9
$FILLMODE
 70
     1
  9
$QTEXTMODE
 70
     0
  9
$MIRRTEXT
 70
     0
  9
$DRAGMODE
 70
     2
  9
$LTSCALE
 40
1.0
  9
$OSMODE
 70
  2087
  9
$ATTMODE
 70
     1
  9
$TEXTSIZE
 40
0.2
  9
$TRACEWID
 40
0.05
  9
$TEXTSTYLE
  7
STANDARD
  9
$CLAYER
  8
0
  9
$CELTYPE
  6
BYLAYER
  9
$CECOLOR
 62
   256
  9
$DIMSCALE
 40
1.0
  9
$DIMASZ
 40
0.18
  9
$DIMEXO
 40
0.0625
  9
$DIMDLI
 40
0.38
  9
$DIMRND
 40
0.0
  9
$DIMDLE
 40
0.0
  9
$DIMEXE
 40
0.18
  9
$DIMTP
 40
0.0
  9
$DIMTM
 40
0.0
  9
$DIMTXT
 40
0.18
  9
$DIMCEN
 40
0.09
  9
$DIMTSZ
 40
0.0
  9
$DIMTOL
 70
     0
  9
$DIMLIM
 70
     0
  9
$DIMTIH
 70
     1
  9
$DIMTOH
 70
     1
  9
$DIMSE1
 70
     0
  9
$DIMSE2
 70
     0
  9
$DIMTAD
 70
     0
  9
$DIMZIN
 70
     0
  9
$DIMBLK
  1

  9
$DIMASO
 70
     1
  9
$DIMSHO
 70
     1
  9
$DIMPOST
  1

  9
$DIMAPOST
  1

  9
$DIMALT
 70
     0
  9
$DIMALTD
 70
     2
  9
$DIMALTF
 40
25.399999999999999
  9
$DIMLFAC
 40
1.0
  9
$DIMTOFL
 70
     0
  9
$DIMTVP
 40
0.0
  9
$DIMTIX
 70
     0
  9
$DIMSOXD
 70
     0
  9
$DIMSAH
 70
     0
  9
$DIMBLK1
  1

  9
$DIMBLK2
  1

  9
$DIMSTYLE
  2
STANDARD
  9
$DIMCLRD
 70
     0
  9
$DIMCLRE
 70
     0
  9
$DIMCLRT
 70
     0
  9
$DIMTFAC
 40
1.0
  9
$DIMGAP
 40
0.09
  9
$LUNITS
 70
     2
  9
$LUPREC
 70
     4
  9
$SKETCHINC
 40
0.1
  9
$FILLETRAD
 40
0.8949999999999999
  9
$AUNITS
 70
     0
  9
$AUPREC
 70
     0
  9
$MENU
  1
.
  9
$ELEVATION
 40
0.0
  9
$PELEVATION
 40
0.0
  9
$THICKNESS
 40
0.0
  9
$LIMCHECK
 70
     0
  9
$BLIPMODE
 70
     0
  9
$CHAMFERA
 40
0.0
  9
$CHAMFERB
 40
0.0
  9
$SKPOLY
 70
     0
  9
$TDCREATE
 40
2459060.4892558791
  9
$TDUPDATE
 40
2459062.5745688998
  9
$TDINDWG
 40
0.0024936806
  9
$TDUSRTIMER
 40
0.0024936574
  9
$USRTIMER
 70
     1
  9
$ANGBASE
 50
0.0
  9
$ANGDIR
 70
     0
  9
$PDMODE
 70
     0
  9
$PDSIZE
 40
0.0
  9
$PLINEWID
 40
0.0
  9
$COORDS
 70
     1
  9
$SPLFRAME
 70
     0
  9
$SPLINETYPE
 70
     6
  9
$SPLINESEGS
 70
     8
  9
$ATTDIA
 70
     1
  9
$ATTREQ
 70
     1
  9
$HANDLING
 70
     1
  9
$HANDSEED
  5
6FC
  9
$SURFTAB1
 70
     6
  9
$SURFTAB2
 70
     6
  9
$SURFTYPE
 70
     6
  9
$SURFU
 70
     6
  9
$SURFV
 70
     6
  9
$UCSNAME
  2

  9
$UCSORG
 10
0.0
 20
0.0
 30
0.0
  9
$UCSXDIR
 10
1.0
 20
0.0
 30
0.0
  9
$UCSYDIR
 10
0.0
 20
1.0
 30
0.0
  9
$PUCSNAME
  2

  9
$PUCSORG
 10
0.0
 20
0.0
 30
0.0
  9
$PUCSXDIR
 10
1.0
 20
0.0
 30
0.0
  9
$PUCSYDIR
 10
0.0
 20
1.0
 30
0.0
  9
$USERI1
 70
     0
  9
$USERI2
 70
     0
  9
$USERI3
 70
     0
  9
$USERI4
 70
     0
  9
$USERI5
 70
     0
  9
$USERR1
 40
0.0
  9
$USERR2
 40
0.0
  9
$USERR3
 40
0.0
  9
$USERR4
 40
0.0
  9
$USERR5
 40
0.0
  9
$WORLDVIEW
 70
     1
  9
$SHADEDGE
 70
     3
  9
$SHADEDIF
 70
    70
  9
$TILEMODE
 70
     1
  9
$MAXACTVP
 70
    64
  9
$PLIMCHECK
 70
     0
  9
$PEXTMIN
 10
0.0
 20
0.0
 30
0.0
  9
$PEXTMAX
 10
0.0
 20
0.0
 30
0.0
  9
$PLIMMIN
 10
0.0
 20
0.0
  9
$PLIMMAX
 10
12.0
 20
9.0
  9
$UNITMODE
 70
     0
  9
$VISRETAIN
 70
     1
  9
$PLINEGEN
 70
     0
  9
$PSLTSCALE
 70
     1
  0
ENDSEC
  0
SECTION
  2
TABLES
  0
TABLE
  2
VPORT
 70
     1
  0
VPORT
  2
*ACTIVE
 70
     0
 10
0.0
 20
0.0
 11
1.0
 21
1.0
 12
12.39035161613209
 22
2.4574271054206909
 13
0.0
 23
0.0
 14
0.5
 24
0.5
 15
0.5
 25
0.5
 16
0.0
 26
0.0
 36
1.0
 17
0.0
 27
0.0
 37
0.0
 40
47.253217310660339
 41
2.2927120669056151
 42
50.0
 43
0.0
 44
0.0
 50
0.0
 51
0.0
 71
     0
 72
  1000
 73
     1
 74
     3
 75
     0
 76
     1
 77
     0
 78
     0
  0
ENDTAB
  0
TABLE
  2
LTYPE
 70
     3
  0
LTYPE
  2
CONTINUOUS
 70
     0
  3
Solid line
 72
    65
 73
     0
 40
0.0
  0
LTYPE
  2
CENTERX2
 70
     0
  3
Center (2x) ________  __  ________  __  _____
 72
    65
 73
     4
 40
0.8
 49
0.5
 49
-0.1
 49
0.1
 49
-0.1
  0
ENDTAB
  0
TABLE
  2
LAYER
 70
     2
  0
LAYER
  2
0
 70
     0
 62
     7
  6
CONTINUOUS
  0
LAYER
  2
DEFPOINTS
 70
     0
 62
     7
  6
CONTINUOUS
  0
ENDTAB
  0
TABLE
  2
STYLE
 70
     3
  0
STYLE
  2
STANDARD
 70
     0
 40
0.0
 41
1.0
 50
0.0
 71
     0
 42
0.2
  3
txt
  4

  0
STYLE
  2
ANNOTATIVE
 70
     0
 40
0.0
 41
1.0
 50
0.0
 71
     0
 42
0.2
  3
txt
  4

  0
STYLE
  2
SLDTEXTSTYLE2
 70
     0
 40
0.0
 41
0.75
 50
0.0
 71
     0
 42
0.1
  3
TXT
  4

  0
ENDTAB
  0
TABLE
  2
VIEW
 70
     0
  0
ENDTAB
  0
TABLE
  2
UCS
 70
     0
  0
ENDTAB
  0
TABLE
  2
APPID
 70
     9
  0
APPID
  2
ACAD
 70
     0
  0
APPID
  2
ACADANNOTATIVE
 70
     0
  0
APPID
  2
ACADANNOPO
 70
     0
  0
APPID
  2
ACAD_DSTYLE_DIMJAG
 70
     0
  0
APPID
  2
ACAD_DSTYLE_DIMTALN
 70
     0
  0
APPID
  2
ACAD_MLEADERVER
 70
     0
  0
APPID
  2
ACAD_NAV_VCDISPLAY
 70
     0
  0
APPID
  2
ACAD_EXEMPT_FROM_CAD_STANDARDS
 70
     0
  0
APPID
  2
ACAD_DSTYLE_DIMRADIAL_EXTENSION
 70
     0
  0
ENDTAB
  0
TABLE
  2
DIMSTYLE
 70
     8
  0
DIMSTYLE
  2
STANDARD
 70
     0
  3

  4

  5

  6

  7

 40
1.0
 41
0.18
 42
0.0625
 43
0.38
 44
0.18
 45
0.0
 46
0.0
 47
0.0
 48
0.0
140
0.18
141
0.09
142
0.0
143
25.399999999999999
144
1.0
145
0.0
146
1.0
147
0.09
 71
     0
 72
     0
 73
     1
 74
     1
 75
     0
 76
     0
 77
     0
 78
     0
170
     0
171
     2
172
     0
173
     0
174
     0
175
     0
176
     0
177
     0
178
     0
  0
DIMSTYLE
  2
ANNOTATIVE
 70
     0
  3

  4

  5

  6

  7

 40
0.0
 41
0.18
 42
0.0625
 43
0.38
 44
0.18
 45
0.0
 46
0.0
 47
0.0
 48
0.0
140
0.18
141
0.09
142
0.0
143
25.399999999999999
144
1.0
145
0.0
146
1.0
147
0.09
 71
     0
 72
     0
 73
     1
 74
     1
 75
     0
 76
     0
 77
     0
 78
     0
170
     0
171
     2
172
     0
173
     0
174
     0
175
     0
176
     0
177
     0
178
     0
  0
DIMSTYLE
  2
SLDDIMSTYLE0
 70
     0
  3

  4

  5

  6

  7

 40
1.0
 41
0.078
 42
0.0625
 43
0.38
 44
0.0
 45
0.000000001
 46
0.0
 47
0.0
 48
0.0
140
0.1
141
0.09
142
0.0
143
25.399999999999999
144
4.0
145
0.0
146
1.0
147
0.025
 71
     0
 72
     0
 73
     1
 74
     1
 75
     0
 76
     0
 77
     0
 78
     4
170
     0
171
     2
172
     0
173
     1
174
     0
175
     0
176
     0
177
     0
178
     0
  0
DIMSTYLE
  2
SLDDIMSTYLE1
 70
     0
  3

  4

  5

  6

  7

 40
1.0
 41
0.078
 42
0.0625
 43
0.38
 44
0.0
 45
0.000000001
 46
0.0
 47
0.0
 48
0.0
140
0.1
141
0.09
142
0.0
143
25.399999999999999
144
4.0
145
0.0
146
1.0
147
0.025
 71
     0
 72
     0
 73
     1
 74
     1
 75
     0
 76
     0
 77
     0
 78
    12
170
     0
171
     2
172
     1
173
     1
174
     0
175
     0
176
     0
177
     0
178
     0
  0
DIMSTYLE
  2
SLDDIMSTYLE2
 70
     0
  3

  4

  5

  6

  7

 40
1.0
 41
0.078
 42
0.0625
 43
0.38
 44
0.0
 45
0.000000001
 46
0.0
 47
0.0
 48
0.0
140
0.1
141
0.09
142
0.0
143
25.399999999999999
144
4.0
145
0.0
146
1.0
147
0.025
 71
     0
 72
     0
 73
     1
 74
     1
 75
     0
 76
     0
 77
     0
 78
    12
170
     0
171
     2
172
     0
173
     1
174
     0
175
     0
176
     0
177
     0
178
     0
  0
DIMSTYLE
  2
SLDDIMSTYLE3
 70
     0
  3

  4

  5

  6

  7

 40
1.0
 41
0.078
 42
0.0625
 43
0.38
 44
0.0
 45
0.000000001
 46
0.0
 47
0.0
 48
0.0
140
0.1
141
0.0
142
0.0
143
25.399999999999999
144
4.0
145
0.0
146
1.0
147
0.025
 71
     0
 72
     0
 73
     1
 74
     1
 75
     0
 76
     0
 77
     0
 78
    12
170
     0
171
     2
172
     0
173
     1
174
     0
175
     0
176
     0
177
     0
178
     0
  0
DIMSTYLE
  2
SLDDIMSTYLE4
 70
     0
  3

  4

  5

  6

  7

 40
1.0
 41
0.078
 42
0.0625
 43
0.38
 44
0.0
 45
0.000000001
 46
0.0
 47
0.0
 48
0.0
140
0.1
141
0.0
142
0.0
143
25.399999999999999
144
4.0
145
0.0
146
1.0
147
0.025
 71
     0
 72
     0
 73
     1
 74
     1
 75
     0
 76
     0
 77
     0
 78
    12
170
     0
171
     2
172
     0
173
     1
174
     0
175
     0
176
     0
177
     0
178
     0
  0
ENDTAB
  0
ENDSEC
  0
SECTION
  2
BLOCKS
  0
BLOCK
  8
0
  2
$MODEL_SPACE
 70
     0
 10
0.0
 20
0.0
 30
0.0
  3
$MODEL_SPACE
  1

  0
ENDBLK
  5
5CC
  8
0
  0
BLOCK
 67
     1
  8
0
  2
$PAPER_SPACE
 70
     0
 10
0.0
 20
0.0
 30
0.0
  3
$PAPER_SPACE
  1

  0
ENDBLK
  5
5C8
 67
     1
  8
0
  0
BLOCK
  8
0
  2
_D
 70
     0
 10
0.0
 20
0.0
 30
0.0
  3
_D
  1

  0
SOLID
  5
1EB
  8
0
  6
CONTINUOUS
 62
     7
 10
2.716364276399998
 20
7.4736859655999988
 30
0.0
 11
2.7943642764000001
 21
7.4606859655999989
 31
0.0
 12
2.7943642764000001
 22
7.4866859655999978
 32
0.0
 13
2.7943642764000001
 23
7.4866859655999978
 33
0.0
  0
SOLID
  5
1EC
  8
0
  6
CONTINUOUS
 62
     7
 10
7.8438642763999988
 20
7.4736859655999988
 30
0.0
 11
7.7658642763999977
 21
7.4866859655999978
 31
0.0
 12
7.7658642763999977
 22
7.4606859655999989
 32
0.0
 13
7.7658642763999977
 23
7.4606859655999989
 33
0.0
  0
LINE
  5
1ED
  8
0
  6
CONTINUOUS
 62
     7
 10
2.716364276399998
 20
6.8937351782
 30
0.0
 11
2.716364276399998
 21
7.5236859655999977
 31
0.0
  0
LINE
  5
1EE
  8
0
  6
CONTINUOUS
 62
     7
 10
7.8438642763999988
 20
6.8937351782
 30
0.0
 11
7.8438642763999988
 21
7.5236859655999977
 31
0.0
  0
LINE
  5
1EF
  8
0
  6
CONTINUOUS
 62
     7
 10
2.716364276399998
 20
7.4736859655999988
 30
0.0
 11
5.0769198203999988
 21
7.4736859655999988
 31
0.0
  0
LINE
  5
1F0
  8
0
  6
CONTINUOUS
 62
     7
 10
7.8438642763999988
 20
7.4736859655999988
 30
0.0
 11
5.4833087324000003
 21
7.4736859655999988
 31
0.0
  0
INSERT
  5
1F1
  8
0
  2
*U3
 10
0.0
 20
0.0
 30
0.0
  0
ENDBLK
  5
1F2
  8
0
  0
BLOCK
  8
0
  2
*U3
 70
     1
 10
0.0
 20
0.0
 30
0.0
  3
*U3
  1

  0
TEXT
  5
4D0
  8
0
 62
     7
 10
5.0769198203999988
 20
7.423217739
 30
0.0
 40
0.1
  1
20.510
 41
0.75
  7
SLDTEXTSTYLE2
  0
ENDBLK
  5
4D2
  8
0
  0
BLOCK
  8
0
  2
_D_1
 70
     0
 10
0.0
 20
0.0
 30
0.0
  3
_D_1
  1

  0
SOLID
  5
1F5
  8
0
  6
CONTINUOUS
 62
     7
 10
8.2375650637999982
 20
7.0799851782000003
 30
0.0
 11
8.2245650638000001
 21
7.0019851782
 31
0.0
 12
8.2505650637999999
 22
7.0019851782
 32
0.0
 13
8.2505650637999999
 23
7.0019851782
 33
0.0
  0
SOLID
  5
1F6
  8
0
  6
CONTINUOUS
 62
     7
 10
8.2375650637999982
 20
4.202485178199999
 30
0.0
 11
8.2505650637999999
 21
4.2804851782000002
 31
0.0
 12
8.2245650638000001
 22
4.2804851782000002
 32
0.0
 13
8.2245650638000001
 23
4.2804851782000002
 33
0.0
  0
LINE
  5
1F7
  8
0
  6
CONTINUOUS
 62
     7
 10
7.6576142763999977
 20
7.0799851782000003
 30
0.0
 11
8.2875650638000007
 21
7.0799851782000003
 31
0.0
  0
LINE
  5
1F8
  8
0
  6
CONTINUOUS
 62
     7
 10
7.6576142763999977
 20
4.202485178199999
 30
0.0
 11
8.2875650638000007
 21
4.202485178199999
 31
0.0
  0
LINE
  5
1F9
  8
0
  6
CONTINUOUS
 62
     7
 10
8.2375650637999982
 20
7.0799851782000003
 30
0.0
 11
8.2375650637999982
 21
5.7206101787000003
 31
0.0
  0
LINE
  5
1FA
  8
0
  6
CONTINUOUS
 62
     7
 10
8.2375650637999982
 20
4.202485178199999
 30
0.0
 11
8.2375650637999982
 21
5.5618601775999981
 31
0.0
  0
INSERT
  5
1FB
  8
0
  2
*U5
 10
0.0
 20
0.0
 30
0.0
  0
ENDBLK
  5
1FC
  8
0
  0
BLOCK
  8
0
  2
*U5
 70
     1
 10
0.0
 20
0.0
 30
0.0
  3
*U5
  1

  0
TEXT
  5
4D4
  8
0
 62
     7
 10
8.0343706077999961
 20
5.5907669516
 30
0.0
 40
0.1
  1
11.510
 41
0.75
  7
SLDTEXTSTYLE2
  0
ENDBLK
  5
4D6
  8
0
  0
BLOCK
  8
0
  2
_D_2
 70
     0
 10
0.0
 20
0.0
 30
0.0
  3
_D_2
  1

  0
SOLID
  5
1FF
  8
0
  6
CONTINUOUS
 62
     7
 10
2.716364276399998
 20
3.8087843907999992
 30
0.0
 11
2.638364276399999
 21
3.8217843907999991
 31
0.0
 12
2.638364276399999
 22
3.7957843907999989
 32
0.0
 13
2.638364276399999
 23
3.7957843907999989
 33
0.0
  0
SOLID
  5
200
  8
0
  6
CONTINUOUS
 62
     7
 10
2.7882533491000001
 20
3.8087843907999992
 30
0.0
 11
2.8662533491
 21
3.7957843907999989
 31
0.0
 12
2.8662533491
 22
3.8217843907999991
 32
0.0
 13
2.8662533491
 23
3.8217843907999991
 33
0.0
  0
LINE
  5
201
  8
0
  6
CONTINUOUS
 62
     7
 10
2.716364276399998
 20
4.3887351782000001
 30
0.0
 11
2.716364276399998
 21
3.7587843907999989
 31
0.0
  0
LINE
  5
202
  8
0
  6
CONTINUOUS
 62
     7
 10
2.7882533491000001
 20
4.7897351781999991
 30
0.0
 11
2.7882533491000001
 21
3.7587843907999989
 31
0.0
  0
LINE
  5
203
  8
0
  6
CONTINUOUS
 62
     7
 10
2.716364276399998
 20
3.8087843907999992
 30
0.0
 11
2.6169198465000001
 21
3.8087843907999992
 31
0.0
  0
LINE
  5
204
  8
0
  6
CONTINUOUS
 62
     7
 10
2.7882533491000001
 20
3.8087843907999992
 30
0.0
 11
2.9132533491000001
 21
3.8087843907999992
 31
0.0
  0
INSERT
  5
205
  8
0
  2
*U7
 10
0.0
 20
0.0
 30
0.0
  0
ENDBLK
  5
206
  8
0
  0
BLOCK
  8
0
  2
*U7
 70
     1
 10
0.0
 20
0.0
 30
0.0
  3
*U7
  1

  0
TEXT
  5
4D8
  8
0
 62
     7
 10
2.3583087272999981
 20
3.7583161642
 30
0.0
 40
0.1
  1
.288
 41
0.75
  7
SLDTEXTSTYLE2
  0
ENDBLK
  5
4DA
  8
0
  0
BLOCK
  8
0
  2
_D_3
 70
     0
 10
0.0
 20
0.0
 30
0.0
  3
_D_3
  1

  0
SOLID
  5
209
  8
0
  6
CONTINUOUS
 62
     7
 10
2.716364276399998
 20
3.572563918299998
 30
0.0
 11
2.7943642764000001
 21
3.5595639182999981
 31
0.0
 12
2.7943642764000001
 22
3.5855639182999992
 32
0.0
 13
2.7943642764000001
 23
3.5855639182999992
 33
0.0
  0
SOLID
  5
20A
  8
0
  6
CONTINUOUS
 62
     7
 10
3.7801142763999991
 20
3.572563918299998
 30
0.0
 11
3.7021142763999988
 21
3.5855639182999992
 31
0.0
 12
3.7021142763999988
 22
3.5595639182999981
 32
0.0
 13
3.7021142763999988
 23
3.5595639182999981
 33
0.0
  0
LINE
  5
20B
  8
0
  6
CONTINUOUS
 62
     7
 10
2.716364276399998
 20
4.3887351782000001
 30
0.0
 11
2.716364276399998
 21
3.5225639182999982
 31
0.0
  0
LINE
  5
20C
  8
0
  6
CONTINUOUS
 62
     7
 10
3.7801142763999991
 20
4.1728742508999987
 30
0.0
 11
3.7801142763999991
 21
3.5225639182999982
 31
0.0
  0
LINE
  5
20D
  8
0
  6
CONTINUOUS
 62
     7
 10
2.716364276399998
 20
3.572563918299998
 30
0.0
 11
3.0819892686000001
 21
3.572563918299998
 31
0.0
  0
LINE
  5
20E
  8
0
  6
CONTINUOUS
 62
     7
 10
3.7801142763999991
 20
3.572563918299998
 30
0.0
 11
3.4144892842000001
 21
3.572563918299998
 31
0.0
  0
INSERT
  5
20F
  8
0
  2
*U9
 10
0.0
 20
0.0
 30
0.0
  0
ENDBLK
  5
210
  8
0
  0
BLOCK
  8
0
  2
*U9
 70
     1
 10
0.0
 20
0.0
 30
0.0
  3
*U9
  1

  0
TEXT
  5
4DC
  8
0
 62
     7
 10
3.0819892686000001
 20
3.5220956917000001
 30
0.0
 40
0.1
  1
4.255
 41
0.75
  7
SLDTEXTSTYLE2
  0
ENDBLK
  5
4DE
  8
0
  0
BLOCK
  8
0
  2
_D_4
 70
     0
 10
0.0
 20
0.0
 30
0.0
  3
_D_4
  1

  0
SOLID
  5
213
  8
0
  6
CONTINUOUS
 62
     7
 10
2.716364276399998
 20
3.3363434458999981
 30
0.0
 11
2.7943642764000001
 21
3.3233434458999991
 31
0.0
 12
2.7943642764000001
 22
3.349343445899998
 32
0.0
 13
2.7943642764000001
 23
3.349343445899998
 33
0.0
  0
SOLID
  5
214
  8
0
  6
CONTINUOUS
 62
     7
 10
5.2801142763999991
 20
3.3363434458999981
 30
0.0
 11
5.2021142763999979
 21
3.349343445899998
 31
0.0
 12
5.2021142763999979
 22
3.3233434458999991
 32
0.0
 13
5.2021142763999979
 23
3.3233434458999991
 33
0.0
  0
LINE
  5
215
  8
0
  6
CONTINUOUS
 62
     7
 10
2.716364276399998
 20
4.3887351782000001
 30
0.0
 11
2.716364276399998
 21
3.2863434458999992
 31
0.0
  0
LINE
  5
216
  8
0
  6
CONTINUOUS
 62
     7
 10
5.2801142763999991
 20
4.1728742508999987
 30
0.0
 11
5.2801142763999991
 21
3.2863434458999992
 31
0.0
  0
LINE
  5
217
  8
0
  6
CONTINUOUS
 62
     7
 10
2.716364276399998
 20
3.3363434458999981
 30
0.0
 11
3.7950448203999989
 21
3.3363434458999981
 31
0.0
  0
LINE
  5
218
  8
0
  6
CONTINUOUS
 62
     7
 10
5.2801142763999991
 20
3.3363434458999981
 30
0.0
 11
4.2014337323999991
 21
3.3363434458999981
 31
0.0
  0
INSERT
  5
219
  8
0
  2
*U11
 10
0.0
 20
0.0
 30
0.0
  0
ENDBLK
  5
21A
  8
0
  0
BLOCK
  8
0
  2
*U11
 70
     1
 10
0.0
 20
0.0
 30
0.0
  3
*U11
  1

  0
TEXT
  5
4E0
  8
0
 62
     7
 10
3.7950448203999989
 20
3.285875219299998
 30
0.0
 40
0.1
  1
10.255
 41
0.75
  7
SLDTEXTSTYLE2
  0
ENDBLK
  5
4E2
  8
0
  0
BLOCK
  8
0
  2
_D_5
 70
     0
 10
0.0
 20
0.0
 30
0.0
  3
_D_5
  1

  0
SOLID
  5
21D
  8
0
  6
CONTINUOUS
 62
     7
 10
2.716364276399998
 20
3.1001229733999991
 30
0.0
 11
2.7943642764000001
 21
3.0871229733999992
 31
0.0
 12
2.7943642764000001
 22
3.1131229733999981
 32
0.0
 13
2.7943642764000001
 23
3.1131229733999981
 33
0.0
  0
SOLID
  5
21E
  8
0
  6
CONTINUOUS
 62
     7
 10
6.7801142763999991
 20
3.1001229733999991
 30
0.0
 11
6.7021142763999979
 21
3.1131229733999981
 31
0.0
 12
6.7021142763999979
 22
3.0871229733999992
 32
0.0
 13
6.7021142763999979
 23
3.0871229733999992
 33
0.0
  0
LINE
  5
21F
  8
0
  6
CONTINUOUS
 62
     7
 10
2.716364276399998
 20
4.3887351782000001
 30
0.0
 11
2.716364276399998
 21
3.0501229733999979
 31
0.0
  0
LINE
  5
220
  8
0
  6
CONTINUOUS
 62
     7
 10
6.7801142763999991
 20
4.1728742508999987
 30
0.0
 11
6.7801142763999991
 21
3.0501229733999979
 31
0.0
  0
LINE
  5
221
  8
0
  6
CONTINUOUS
 62
     7
 10
2.716364276399998
 20
3.1001229733999991
 30
0.0
 11
4.5450448204000002
 21
3.1001229733999991
 31
0.0
  0
LINE
  5
222
  8
0
  6
CONTINUOUS
 62
     7
 10
6.7801142763999991
 20
3.1001229733999991
 30
0.0
 11
4.9514337323999991
 21
3.1001229733999991
 31
0.0
  0
INSERT
  5
223
  8
0
  2
*U13
 10
0.0
 20
0.0
 30
0.0
  0
ENDBLK
  5
224
  8
0
  0
BLOCK
  8
0
  2
*U13
 70
     1
 10
0.0
 20
0.0
 30
0.0
  3
*U13
  1

  0
TEXT
  5
4E4
  8
0
 62
     7
 10
4.5450448204000002
 20
3.0496547468999982
 30
0.0
 40
0.1
  1
16.255
 41
0.75
  7
SLDTEXTSTYLE2
  0
ENDBLK
  5
4E6
  8
0
  0
BLOCK
  8
0
  2
_D_6
 70
     0
 10
0.0
 20
0.0
 30
0.0
  3
_D_6
  1

  0
SOLID
  5
227
  8
0
  6
CONTINUOUS
 62
     7
 10
2.716364276399998
 20
2.8639025010000001
 30
0.0
 11
2.7943642764000001
 21
2.8509025010000002
 31
0.0
 12
2.7943642764000001
 22
2.876902501
 32
0.0
 13
2.7943642764000001
 23
2.876902501
 33
0.0
  0
SOLID
  5
228
  8
0
  6
CONTINUOUS
 62
     7
 10
7.7719752036000003
 20
2.8639025010000001
 30
0.0
 11
7.6939752035999982
 21
2.876902501
 31
0.0
 12
7.6939752035999982
 22
2.8509025010000002
 32
0.0
 13
7.6939752035999982
 23
2.8509025010000002
 33
0.0
  0
LINE
  5
229
  8
0
  6
CONTINUOUS
 62
     7
 10
2.716364276399998
 20
4.3887351782000001
 30
0.0
 11
2.716364276399998
 21
2.8139025009999989
 31
0.0
  0
LINE
  5
22A
  8
0
  6
CONTINUOUS
 62
     7
 10
7.7719752036000003
 20
4.7897351781999991
 30
0.0
 11
7.7719752036000003
 21
2.8139025009999989
 31
0.0
  0
LINE
  5
22B
  8
0
  6
CONTINUOUS
 62
     7
 10
2.716364276399998
 20
2.8639025010000001
 30
0.0
 11
5.0409752839999991
 21
2.8639025010000001
 31
0.0
  0
LINE
  5
22C
  8
0
  6
CONTINUOUS
 62
     7
 10
7.7719752036000003
 20
2.8639025010000001
 30
0.0
 11
5.4473641959999988
 21
2.8639025010000001
 31
0.0
  0
INSERT
  5
22D
  8
0
  2
*U15
 10
0.0
 20
0.0
 30
0.0
  0
ENDBLK
  5
22E
  8
0
  0
BLOCK
  8
0
  2
*U15
 70
     1
 10
0.0
 20
0.0
 30
0.0
  3
*U15
  1

  0
TEXT
  5
4E8
  8
0
 62
     7
 10
5.0409752839999991
 20
2.8134342744
 30
0.0
 40
0.1
  1
20.222
 41
0.75
  7
SLDTEXTSTYLE2
  0
ENDBLK
  5
4EA
  8
0
  0
BLOCK
  8
0
  2
_D_7
 70
     0
 10
0.0
 20
0.0
 30
0.0
  3
_D_7
  1

  0
SOLID
  5
231
  8
0
  6
CONTINUOUS
 62
     7
 10
2.5588839613999981
 20
4.202485178199999
 30
0.0
 11
2.5458839613999991
 21
4.1244851781999987
 31
0.0
 12
2.571883961399998
 22
4.1244851781999987
 32
0.0
 13
2.571883961399998
 23
4.1244851781999987
 33
0.0
  0
SOLID
  5
232
  8
0
  6
CONTINUOUS
 62
     7
 10
2.5588839613999981
 20
4.2743742508999993
 30
0.0
 11
2.571883961399998
 21
4.3523742508999987
 31
0.0
 12
2.5458839613999991
 22
4.3523742508999987
 32
0.0
 13
2.5458839613999991
 23
4.3523742508999987
 33
0.0
  0
LINE
  5
233
  8
0
  6
CONTINUOUS
 62
     7
 10
2.9026142763999991
 20
4.202485178199999
 30
0.0
 11
2.5088839614
 21
4.202485178199999
 31
0.0
  0
LINE
  5
234
  8
0
  6
CONTINUOUS
 62
     7
 10
3.6786142763999989
 20
4.2743742508999993
 30
0.0
 11
2.5088839614
 21
4.2743742508999993
 31
0.0
  0
LINE
  5
235
  8
0
  6
CONTINUOUS
 62
     7
 10
2.458883961399998
 20
3.9981101776000001
 30
0.0
 11
2.5588839613999981
 21
3.9981101776000001
 31
0.0
  0
LINE
  5
236
  8
0
  6
CONTINUOUS
 62
     7
 10
2.5588839613999981
 20
3.9981101776000001
 30
0.0
 11
2.5588839613999981
 21
4.202485178199999
 31
0.0
  0
LINE
  5
237
  8
0
  6
CONTINUOUS
 62
     7
 10
2.5588839613999981
 20
4.2743742508999993
 30
0.0
 11
2.5588839613999981
 21
4.3993742508999993
 31
0.0
  0
INSERT
  5
238
  8
0
  2
*U17
 10
0.0
 20
0.0
 30
0.0
  0
ENDBLK
  5
239
  8
0
  0
BLOCK
  8
0
  2
*U17
 70
     1
 10
0.0
 20
0.0
 30
0.0
  3
*U17
  1

  0
TEXT
  5
4EC
  8
0
 62
     7
 10
2.2002728421999991
 20
3.9476419509999991
 30
0.0
 40
0.1
  1
.288
 41
0.75
  7
SLDTEXTSTYLE2
  0
ENDBLK
  5
4EE
  8
0
  0
BLOCK
  8
0
  2
_D_8
 70
     0
 10
0.0
 20
0.0
 30
0.0
  3
_D_8
  1

  0
SOLID
  5
23C
  8
0
  6
CONTINUOUS
 62
     7
 10
2.0864430165000001
 20
4.202485178199999
 30
0.0
 11
2.0994430164999991
 21
4.2804851782000002
 31
0.0
 12
2.0734430165000002
 22
4.2804851782000002
 32
0.0
 13
2.0734430165000002
 23
4.2804851782000002
 33
0.0
  0
SOLID
  5
23D
  8
0
  6
CONTINUOUS
 62
     7
 10
2.0864430165000001
 20
4.8912351781999979
 30
0.0
 11
2.0734430165000002
 21
4.8132351782000002
 31
0.0
 12
2.0994430164999991
 22
4.8132351782000002
 32
0.0
 13
2.0994430164999991
 23
4.8132351782000002
 33
0.0
  0
LINE
  5
23E
  8
0
  6
CONTINUOUS
 62
     7
 10
2.9026142763999991
 20
4.202485178199999
 30
0.0
 11
2.0364430164999989
 21
4.202485178199999
 31
0.0
  0
LINE
  5
23F
  8
0
  6
CONTINUOUS
 62
     7
 10
2.6867533491
 20
4.8912351781999979
 30
0.0
 11
2.0364430164999989
 21
4.8912351781999979
 31
0.0
  0
LINE
  5
240
  8
0
  6
CONTINUOUS
 62
     7
 10
2.0864430165000001
 20
4.202485178199999
 30
0.0
 11
2.0864430165000001
 21
4.4674851775999986
 31
0.0
  0
LINE
  5
241
  8
0
  6
CONTINUOUS
 62
     7
 10
2.0864430165000001
 20
4.8912351781999979
 30
0.0
 11
2.0864430165000001
 21
4.6262351787
 31
0.0
  0
INSERT
  5
242
  8
0
  2
*U19
 10
0.0
 20
0.0
 30
0.0
  0
ENDBLK
  5
243
  8
0
  0
BLOCK
  8
0
  2
*U19
 70
     1
 10
0.0
 20
0.0
 30
0.0
  3
*U19
  1

  0
TEXT
  5
4F0
  8
0
 62
     7
 10
1.9201930087000001
 20
4.4963919515999988
 30
0.0
 40
0.1
  1
2.755
 41
0.75
  7
SLDTEXTSTYLE2
  0
ENDBLK
  5
4F2
  8
0
  0
BLOCK
  8
0
  2
_D_9
 70
     0
 10
0.0
 20
0.0
 30
0.0
  3
_D_9
  1

  0
SOLID
  5
246
  8
0
  6
CONTINUOUS
 62
     7
 10
1.6140020715999981
 20
4.202485178199999
 30
0.0
 11
1.6270020715999991
 21
4.2804851782000002
 31
0.0
 12
1.6010020715999991
 22
4.2804851782000002
 32
0.0
 13
1.6010020715999991
 23
4.2804851782000002
 33
0.0
  0
SOLID
  5
247
  8
0
  6
CONTINUOUS
 62
     7
 10
1.6140020715999981
 20
6.3912351781999988
 30
0.0
 11
1.6010020715999991
 21
6.3132351782000002
 31
0.0
 12
1.6270020715999991
 22
6.3132351782000002
 32
0.0
 13
1.6270020715999991
 23
6.3132351782000002
 33
0.0
  0
LINE
  5
248
  8
0
  6
CONTINUOUS
 62
     7
 10
2.9026142763999991
 20
4.202485178199999
 30
0.0
 11
1.5640020716
 21
4.202485178199999
 31
0.0
  0
LINE
  5
249
  8
0
  6
CONTINUOUS
 62
     7
 10
2.6867533491
 20
6.3912351781999988
 30
0.0
 11
1.5640020716
 21
6.3912351781999988
 31
0.0
  0
LINE
  5
24A
  8
0
  6
CONTINUOUS
 62
     7
 10
1.6140020715999981
 20
4.202485178199999
 30
0.0
 11
1.6140020715999981
 21
5.2174851775999986
 31
0.0
  0
LINE
  5
24B
  8
0
  6
CONTINUOUS
 62
     7
 10
1.6140020715999981
 20
6.3912351781999988
 30
0.0
 11
1.6140020715999981
 21
5.3762351787
 31
0.0
  0
INSERT
  5
24C
  8
0
  2
*U21
 10
0.0
 20
0.0
 30
0.0
  0
ENDBLK
  5
24D
  8
0
  0
BLOCK
  8
0
  2
*U21
 70
     1
 10
0.0
 20
0.0
 30
0.0
  3
*U21
  1

  0
TEXT
  5
4F4
  8
0
 62
     7
 10
1.4477520637999981
 20
5.2463919515999988
 30
0.0
 40
0.1
  1
8.755
 41
0.75
  7
SLDTEXTSTYLE2
  0
ENDBLK
  5
4F6
  8
0
  0
BLOCK
  8
0
  2
_D_10
 70
     0
 10
0.0
 20
0.0
 30
0.0
  3
_D_10
  1

  0
SOLID
  5
250
  8
0
  6
CONTINUOUS
 62
     7
 10
1.1415611268000001
 20
4.202485178199999
 30
0.0
 11
1.1545611268
 21
4.2804851782000002
 31
0.0
 12
1.1285611267999991
 22
4.2804851782000002
 32
0.0
 13
1.1285611267999991
 23
4.2804851782000002
 33
0.0
  0
SOLID
  5
251
  8
0
  6
CONTINUOUS
 62
     7
 10
1.1415611268000001
 20
7.0080961053999991
 30
0.0
 11
1.1285611267999991
 21
6.9300961053999979
 31
0.0
 12
1.1545611268
 22
6.9300961053999979
 32
0.0
 13
1.1545611268
 23
6.9300961053999979
 33
0.0
  0
LINE
  5
252
  8
0
  6
CONTINUOUS
 62
     7
 10
2.9026142763999991
 20
4.202485178199999
 30
0.0
 11
1.0915611268000001
 21
4.202485178199999
 31
0.0
  0
LINE
  5
253
  8
0
  6
CONTINUOUS
 62
     7
 10
3.6786142763999989
 20
7.0080961053999991
 30
0.0
 11
1.0915611268000001
 21
7.0080961053999991
 31
0.0
  0
LINE
  5
254
  8
0
  6
CONTINUOUS
 62
     7
 10
1.1415611268000001
 20
4.202485178199999
 30
0.0
 11
1.1415611268000001
 21
5.5259156412000001
 31
0.0
  0
LINE
  5
255
  8
0
  6
CONTINUOUS
 62
     7
 10
1.1415611268000001
 20
7.0080961053999991
 30
0.0
 11
1.1415611268000001
 21
5.6846656422999988
 31
0.0
  0
INSERT
  5
256
  8
0
  2
*U23
 10
0.0
 20
0.0
 30
0.0
  0
ENDBLK
  5
257
  8
0
  0
BLOCK
  8
0
  2
*U23
 70
     1
 10
0.0
 20
0.0
 30
0.0
  3
*U23
  1

  0
TEXT
  5
4F8
  8
0
 62
     7
 10
0.9383666707999999
 20
5.5548224152000003
 30
0.0
 40
0.1
  1
11.222
 41
0.75
  7
SLDTEXTSTYLE2
  0
ENDBLK
  5
4FA
  8
0
  0
BLOCK
  8
0
  2
_D_11
 70
     0
 10
0.0
 20
0.0
 30
0.0
  3
_D_11
  1

  0
SOLID
  5
25A
  8
0
  6
CONTINUOUS
 62
     7
 10
0.6691201819
 20
4.202485178199999
 30
0.0
 11
0.6821201819000002
 21
4.2804851782000002
 31
0.0
 12
0.6561201819
 22
4.2804851782000002
 32
0.0
 13
0.6561201819
 23
4.2804851782000002
 33
0.0
  0
SOLID
  5
25B
  8
0
  6
CONTINUOUS
 62
     7
 10
0.6691201819
 20
7.0799851782000003
 30
0.0
 11
0.6561201819
 21
7.0019851782
 31
0.0
 12
0.6821201819000002
 22
7.0019851782
 32
0.0
 13
0.6821201819000002
 23
7.0019851782
 33
0.0
  0
LINE
  5
25C
  8
0
  6
CONTINUOUS
 62
     7
 10
2.9026142763999991
 20
4.202485178199999
 30
0.0
 11
0.6191201819
 21
4.202485178199999
 31
0.0
  0
LINE
  5
25D
  8
0
  6
CONTINUOUS
 62
     7
 10
2.9026142763999991
 20
7.0799851782000003
 30
0.0
 11
0.6191201819
 21
7.0799851782000003
 31
0.0
  0
LINE
  5
25E
  8
0
  6
CONTINUOUS
 62
     7
 10
0.6691201819
 20
4.202485178199999
 30
0.0
 11
0.6691201819
 21
5.5618601775999981
 31
0.0
  0
LINE
  5
25F
  8
0
  6
CONTINUOUS
 62
     7
 10
0.6691201819
 20
7.0799851782000003
 30
0.0
 11
0.6691201819
 21
5.7206101787000003
 31
0.0
  0
INSERT
  5
260
  8
0
  2
*U25
 10
0.0
 20
0.0
 30
0.0
  0
ENDBLK
  5
261
  8
0
  0
BLOCK
  8
0
  2
*U25
 70
     1
 10
0.0
 20
0.0
 30
0.0
  3
*U25
  1

  0
TEXT
  5
4FC
  8
0
 62
     7
 10
0.4659257259000002
 20
5.5907669516
 30
0.0
 40
0.1
  1
11.510
 41
0.75
  7
SLDTEXTSTYLE2
  0
ENDBLK
  5
4FE
  8
0
  0
BLOCK
  8
0
  2
_D_12
 70
     0
 10
0.0
 20
0.0
 30
0.0
  3
_D_12
  1

  0
SOLID
  5
264
  8
0
  6
CONTINUOUS
 62
     7
 10
3.7593642763999982
 20
7.0440361597000001
 30
0.0
 11
3.7316226065999989
 21
7.1180861412
 31
0.0
 12
3.7091059461000002
 22
7.1050861412000001
 32
0.0
 13
3.7091059461000002
 23
7.1050861412000001
 33
0.0
  0
LINE
  5
265
  8
0
  6
CONTINUOUS
 62
     7
 10
3.7593642763999982
 20
7.0440361597000001
 30
0.0
 11
3.2602700327999981
 21
7.9084927474000004
 31
0.0
  0
LINE
  5
266
  8
0
  6
CONTINUOUS
 62
     7
 10
3.2602700327999981
 20
7.9084927474000004
 30
0.0
 11
3.191520032799998
 21
7.9084927474000004
 31
0.0
  0
INSERT
  5
267
  8
0
  2
*U27
 10
0.0
 20
0.0
 30
0.0
  0
INSERT
  5
268
  8
0
  2
*U28
 10
0.0
 20
0.0
 30
0.0
  0
INSERT
  5
269
  8
0
  2
*U29
 10
0.0
 20
0.0
 30
0.0
  0
INSERT
  5
26A
  8
0
  6
CONTINUOUS
 62
     7
  2
SW_SYMBOL_HOLE_SINK
 10
1.8937563025999991
 20
7.762082154599999
 30
0.0
 41
0.0032444531
 42
0.0032444531
 43
0.0032444531
  0
INSERT
  5
26B
  8
0
  2
*U31
 10
0.0
 20
0.0
 30
0.0
  0
INSERT
  5
26C
  8
0
  2
*U32
 10
0.0
 20
0.0
 30
0.0
  0
ENDBLK
  5
26D
  8
0
  0
BLOCK
  8
0
  2
*U27
 70
     1
 10
0.0
 20
0.0
 30
0.0
  3
*U27
  1

  0
TEXT
  5
500
  8
0
 62
     7
 10
1.8048743961
 20
7.9389273120999979
 30
0.0
 40
0.1
  1
10X
 41
0.75
  7
SLDTEXTSTYLE2
  0
ENDBLK
  5
502
  8
0
  0
BLOCK
  8
0
  2
*U28
 70
     1
 10
0.0
 20
0.0
 30
0.0
  3
*U28
  1

  0
TEXT
  5
504
  8
0
 62
     7
 10
2.0708466118999991
 20
7.9373995327999989
 30
0.0
 40
0.1
  1
\U+2205
 41
0.75
  7
SLDTEXTSTYLE2
  0
ENDBLK
  5
506
  8
0
  0
BLOCK
  8
0
  2
*U29
 70
     1
 10
0.0
 20
0.0
 30
0.0
  3
*U29
  1

  0
TEXT
  5
508
  8
0
 62
     7
 10
2.2591591047000001
 20
7.9389273120999979
 30
0.0
 40
0.1
  1
.194 THRU ALL
 41
0.75
  7
SLDTEXTSTYLE2
  0
ENDBLK
  5
50A
  8
0
  0
BLOCK
  8
0
  2
SW_SYMBOL_HOLE_SINK
 70
     0
 10
0.0
 20
0.0
 30
0.0
  3
SW_SYMBOL_HOLE_SINK
  1

  0
LINE
  5
270
  8
0
  6
CONTINUOUS
 62
     0
 10
0.0
 20
34.448818897599999
 30
0.0
 11
31.496062992100001
 21
2.9527559055000001
 31
0.0
  0
LINE
  5
271
  8
0
  6
CONTINUOUS
 62
     0
 10
31.496062992100001
 20
2.9527559055000001
 30
0.0
 11
62.992125984300003
 21
34.448818897599999
 31
0.0
  0
ENDBLK
  5
272
  8
0
  0
BLOCK
  8
0
  2
*U31
 70
     1
 10
0.0
 20
0.0
 30
0.0
  3
*U31
  1

  0
TEXT
  5
50C
  8
0
 62
     7
 10
2.1636313099999991
 20
7.7771217410000002
 30
0.0
 40
0.1
  1
\U+2205
 41
0.75
  7
SLDTEXTSTYLE2
  0
ENDBLK
  5
50E
  8
0
  0
BLOCK
  8
0
  2
*U32
 70
     1
 10
0.0
 20
0.0
 30
0.0
  3
*U32
  1

  0
TEXT
  5
510
  8
0
 62
     7
 10
2.3519438028000001
 20
7.7786495203000001
 30
0.0
 40
0.1
  1
.332 X 100°
 41
0.75
  7
SLDTEXTSTYLE2
  0
ENDBLK
  5
512
  8
0
  0
BLOCK
  8
0
  2
_D_13
 70
     0
 10
0.0
 20
0.0
 30
0.0
  3
_D_13
  1

  0
SOLID
  5
275
  8
0
  6
CONTINUOUS
 62
     7
 10
2.7907275403999989
 20
7.0241916658000001
 30
0.0
 11
2.7486654791
 21
7.0911527216000003
 31
0.0
 12
2.7292220047999991
 22
7.0738914554999992
 32
0.0
 13
2.7292220047999991
 23
7.0738914554999992
 33
0.0
  0
LINE
  5
276
  8
0
  6
CONTINUOUS
 62
     7
 10
2.7907275403999989
 20
7.0241916658000001
 30
0.0
 11
2.479727689699998
 21
7.3745088172999971
 31
0.0
  0
LINE
  5
277
  8
0
  6
CONTINUOUS
 62
     7
 10
2.479727689699998
 20
7.3745088172999971
 30
0.0
 11
2.3797276897000001
 21
7.3745088172999971
 31
0.0
  0
INSERT
  5
278
  8
0
  2
*U34
 10
0.0
 20
0.0
 30
0.0
  0
INSERT
  5
279
  8
0
  2
*U35
 10
0.0
 20
0.0
 30
0.0
  0
ENDBLK
  5
27A
  8
0
  0
BLOCK
  8
0
  2
*U34
 70
     1
 10
0.0
 20
0.0
 30
0.0
  3
*U34
  1

  0
TEXT
  5
514
  8
0
 62
     7
 10
1.8652832493
 20
7.3240405908000001
 30
0.0
 40
0.1
  1
4x
 41
0.75
  7
SLDTEXTSTYLE2
  0
ENDBLK
  5
516
  8
0
  0
BLOCK
  8
0
  2
*U35
 70
     1
 10
0.0
 20
0.0
 30
0.0
  3
*U35
  1

  0
TEXT
  5
518
  8
0
 62
     7
 10
2.0401443608999981
 20
7.3240405908000001
 30
0.0
 40
0.1
  1
R.885
 41
0.75
  7
SLDTEXTSTYLE2
  0
ENDBLK
  5
51A
  8
0
  0
BLOCK
  8
0
  2
SW_CENTERMARKSYMBOL_0
 70
     0
 10
0.0
 20
0.0
 30
0.0
  3
SW_CENTERMARKSYMBOL_0
  1

  0
LINE
  5
27D
  8
0
  6
CONTINUOUS
 62
     0
 10
0.0
 20
0.0
 30
0.0
 11
0.0
 21
0.025
 31
0.0
  0
LINE
  5
27E
  8
0
  6
CONTINUOUS
 62
     0
 10
0.0
 20
0.0
 30
0.0
 11
-0.025
 21
0.0
 31
0.0
  0
LINE
  5
27F
  8
0
  6
CONTINUOUS
 62
     0
 10
0.0
 20
0.0
 30
0.0
 11
0.0
 21
-0.025
 31
0.0
  0
LINE
  5
280
  8
0
  6
CONTINUOUS
 62
     0
 10
0.0
 20
0.0
 30
0.0
 11
0.025
 21
0.0
 31
0.0
  0
LINE
  5
281
  8
0
  6
CONTINUOUS
 62
     0
 10
-0.05
 20
0.0
 30
0.0
 11
-0.0665
 21
0.0
 31
0.0
  0
LINE
  5
282
  8
0
  6
CONTINUOUS
 62
     0
 10
0.0
 20
-0.05
 30
0.0
 11
0.0
 21
-0.0665
 31
0.0
  0
LINE
  5
283
  8
0
  6
CONTINUOUS
 62
     0
 10
0.0
 20
1.5
 30
0.0
 11
0.0
 21
1.524999999999999
 31
0.0
  0
LINE
  5
284
  8
0
  6
CONTINUOUS
 62
     0
 10
0.0
 20
1.5
 30
0.0
 11
-0.025
 21
1.5
 31
0.0
  0
LINE
  5
285
  8
0
  6
CONTINUOUS
 62
     0
 10
0.0
 20
1.5
 30
0.0
 11
0.0
 21
1.4750000000000001
 31
0.0
  0
LINE
  5
286
  8
0
  6
CONTINUOUS
 62
     0
 10
0.0
 20
1.5
 30
0.0
 11
0.025
 21
1.5
 31
0.0
  0
LINE
  5
287
  8
0
  6
CONTINUOUS
 62
     0
 10
0.0
 20
1.55
 30
0.0
 11
0.0
 21
1.5665
 31
0.0
  0
LINE
  5
288
  8
0
  6
CONTINUOUS
 62
     0
 10
-0.05
 20
1.5
 30
0.0
 11
-0.0665
 21
1.5
 31
0.0
  0
LINE
  5
289
  8
0
  6
CONTINUOUS
 62
     0
 10
0.9918609272999999
 20
2.1168609272999981
 30
0.0
 11
0.9918609272999999
 21
2.141860927299998
 31
0.0
  0
LINE
  5
28A
  8
0
  6
CONTINUOUS
 62
     0
 10
0.9918609272999999
 20
2.1168609272999981
 30
0.0
 11
0.9668609273
 21
2.1168609272999981
 31
0.0
  0
LINE
  5
28B
  8
0
  6
CONTINUOUS
 62
     0
 10
0.9918609272999999
 20
2.1168609272999981
 30
0.0
 11
0.9918609272999999
 21
2.0918609272999991
 31
0.0
  0
LINE
  5
28C
  8
0
  6
CONTINUOUS
 62
     0
 10
0.9918609272999999
 20
2.1168609272999981
 30
0.0
 11
1.0168609272999991
 21
2.1168609272999981
 31
0.0
  0
LINE
  5
28D
  8
0
  6
CONTINUOUS
 62
     0
 10
0.9918609272999999
 20
2.1668609272999979
 30
0.0
 11
0.9918609272999999
 21
2.1833609272999981
 31
0.0
  0
LINE
  5
28E
  8
0
  6
CONTINUOUS
 62
     0
 10
0.9418609273000002
 20
2.1168609272999981
 30
0.0
 11
0.9253609273
 21
2.1168609272999981
 31
0.0
  0
LINE
  5
28F
  8
0
  6
CONTINUOUS
 62
     0
 10
2.4918609272999981
 20
2.1168609272999981
 30
0.0
 11
2.4918609272999981
 21
2.141860927299998
 31
0.0
  0
LINE
  5
290
  8
0
  6
CONTINUOUS
 62
     0
 10
2.4918609272999981
 20
2.1168609272999981
 30
0.0
 11
2.4668609272999991
 21
2.1168609272999981
 31
0.0
  0
LINE
  5
291
  8
0
  6
CONTINUOUS
 62
     0
 10
2.4918609272999981
 20
2.1168609272999981
 30
0.0
 11
2.4918609272999981
 21
2.0918609272999991
 31
0.0
  0
LINE
  5
292
  8
0
  6
CONTINUOUS
 62
     0
 10
2.4918609272999981
 20
2.1168609272999981
 30
0.0
 11
2.516860927299998
 21
2.1168609272999981
 31
0.0
  0
LINE
  5
293
  8
0
  6
CONTINUOUS
 62
     0
 10
2.4918609272999981
 20
2.1668609272999979
 30
0.0
 11
2.4918609272999981
 21
2.1833609272999981
 31
0.0
  0
LINE
  5
294
  8
0
  6
CONTINUOUS
 62
     0
 10
3.991860927299999
 20
2.1168609272999981
 30
0.0
 11
3.991860927299999
 21
2.141860927299998
 31
0.0
  0
LINE
  5
295
  8
0
  6
CONTINUOUS
 62
     0
 10
3.991860927299999
 20
2.1168609272999981
 30
0.0
 11
3.9668609273
 21
2.1168609272999981
 31
0.0
  0
LINE
  5
296
  8
0
  6
CONTINUOUS
 62
     0
 10
3.991860927299999
 20
2.1168609272999981
 30
0.0
 11
3.991860927299999
 21
2.0918609272999991
 31
0.0
  0
LINE
  5
297
  8
0
  6
CONTINUOUS
 62
     0
 10
3.991860927299999
 20
2.1168609272999981
 30
0.0
 11
4.016860927299998
 21
2.1168609272999981
 31
0.0
  0
LINE
  5
298
  8
0
  6
CONTINUOUS
 62
     0
 10
3.991860927299999
 20
2.1668609272999979
 30
0.0
 11
3.991860927299999
 21
2.1833609272999981
 31
0.0
  0
LINE
  5
299
  8
0
  6
CONTINUOUS
 62
     0
 10
4.0418609273000001
 20
2.1168609272999981
 30
0.0
 11
4.0583609272999981
 21
2.1168609272999981
 31
0.0
  0
LINE
  5
29A
  8
0
  6
CONTINUOUS
 62
     0
 10
4.9837218544999979
 20
1.5
 30
0.0
 11
4.9837218544999979
 21
1.524999999999999
 31
0.0
  0
LINE
  5
29B
  8
0
  6
CONTINUOUS
 62
     0
 10
4.9837218544999979
 20
1.5
 30
0.0
 11
4.9587218545000002
 21
1.5
 31
0.0
  0
LINE
  5
29C
  8
0
  6
CONTINUOUS
 62
     0
 10
4.9837218544999979
 20
1.5
 30
0.0
 11
4.9837218544999979
 21
1.4750000000000001
 31
0.0
  0
LINE
  5
29D
  8
0
  6
CONTINUOUS
 62
     0
 10
4.9837218544999979
 20
1.5
 30
0.0
 11
5.0087218545000001
 21
1.5
 31
0.0
  0
LINE
  5
29E
  8
0
  6
CONTINUOUS
 62
     0
 10
4.9837218544999979
 20
1.55
 30
0.0
 11
4.9837218544999979
 21
1.5665
 31
0.0
  0
LINE
  5
29F
  8
0
  6
CONTINUOUS
 62
     0
 10
5.0337218544999986
 20
1.5
 30
0.0
 11
5.0502218545000002
 21
1.5
 31
0.0
  0
LINE
  5
2A0
  8
0
  6
CONTINUOUS
 62
     0
 10
4.9837218544999979
 20
0.0
 30
0.0
 11
4.9837218544999979
 21
0.025
 31
0.0
  0
LINE
  5
2A1
  8
0
  6
CONTINUOUS
 62
     0
 10
4.9837218544999979
 20
0.0
 30
0.0
 11
4.9587218545000002
 21
0.0
 31
0.0
  0
LINE
  5
2A2
  8
0
  6
CONTINUOUS
 62
     0
 10
4.9837218544999979
 20
0.0
 30
0.0
 11
4.9837218544999979
 21
-0.025
 31
0.0
  0
LINE
  5
2A3
  8
0
  6
CONTINUOUS
 62
     0
 10
4.9837218544999979
 20
0.0
 30
0.0
 11
5.0087218545000001
 21
0.0
 31
0.0
  0
LINE
  5
2A4
  8
0
  6
CONTINUOUS
 62
     0
 10
4.9837218544999979
 20
-0.05
 30
0.0
 11
4.9837218544999979
 21
-0.0665
 31
0.0
  0
LINE
  5
2A5
  8
0
  6
CONTINUOUS
 62
     0
 10
5.0337218544999986
 20
0.0
 30
0.0
 11
5.0502218545000002
 21
0.0
 31
0.0
  0
LINE
  5
2A6
  8
0
  6
CONTINUOUS
 62
     0
 10
3.991860927299999
 20
-0.6168609273
 30
0.0
 11
3.991860927299999
 21
-0.5918609273
 31
0.0
  0
LINE
  5
2A7
  8
0
  6
CONTINUOUS
 62
     0
 10
3.991860927299999
 20
-0.6168609273
 30
0.0
 11
3.9668609273
 21
-0.6168609273
 31
0.0
  0
LINE
  5
2A8
  8
0
  6
CONTINUOUS
 62
     0
 10
3.991860927299999
 20
-0.6168609273
 30
0.0
 11
3.991860927299999
 21
-0.6418609273
 31
0.0
  0
LINE
  5
2A9
  8
0
  6
CONTINUOUS
 62
     0
 10
3.991860927299999
 20
-0.6168609273
 30
0.0
 11
4.016860927299998
 21
-0.6168609273
 31
0.0
  0
LINE
  5
2AA
  8
0
  6
CONTINUOUS
 62
     0
 10
3.991860927299999
 20
-0.6668609273000002
 30
0.0
 11
3.991860927299999
 21
-0.6833609273000001
 31
0.0
  0
LINE
  5
2AB
  8
0
  6
CONTINUOUS
 62
     0
 10
4.0418609273000001
 20
-0.6168609273
 30
0.0
 11
4.0583609272999981
 21
-0.6168609273
 31
0.0
  0
LINE
  5
2AC
  8
0
  6
CONTINUOUS
 62
     0
 10
2.4918609272999981
 20
-0.6168609273
 30
0.0
 11
2.4918609272999981
 21
-0.5918609273
 31
0.0
  0
LINE
  5
2AD
  8
0
  6
CONTINUOUS
 62
     0
 10
2.4918609272999981
 20
-0.6168609273
 30
0.0
 11
2.4668609272999991
 21
-0.6168609273
 31
0.0
  0
LINE
  5
2AE
  8
0
  6
CONTINUOUS
 62
     0
 10
2.4918609272999981
 20
-0.6168609273
 30
0.0
 11
2.4918609272999981
 21
-0.6418609273
 31
0.0
  0
LINE
  5
2AF
  8
0
  6
CONTINUOUS
 62
     0
 10
2.4918609272999981
 20
-0.6168609273
 30
0.0
 11
2.516860927299998
 21
-0.6168609273
 31
0.0
  0
LINE
  5
2B0
  8
0
  6
CONTINUOUS
 62
     0
 10
2.4918609272999981
 20
-0.6668609273000002
 30
0.0
 11
2.4918609272999981
 21
-0.6833609273000001
 31
0.0
  0
LINE
  5
2B1
  8
0
  6
CONTINUOUS
 62
     0
 10
0.9918609272999999
 20
-0.6168609273
 30
0.0
 11
0.9918609272999999
 21
-0.5918609273
 31
0.0
  0
LINE
  5
2B2
  8
0
  6
CONTINUOUS
 62
     0
 10
0.9918609272999999
 20
-0.6168609273
 30
0.0
 11
0.9668609273
 21
-0.6168609273
 31
0.0
  0
LINE
  5
2B3
  8
0
  6
CONTINUOUS
 62
     0
 10
0.9918609272999999
 20
-0.6168609273
 30
0.0
 11
0.9918609272999999
 21
-0.6418609273
 31
0.0
  0
LINE
  5
2B4
  8
0
  6
CONTINUOUS
 62
     0
 10
0.9918609272999999
 20
-0.6168609273
 30
0.0
 11
1.0168609272999991
 21
-0.6168609273
 31
0.0
  0
LINE
  5
2B5
  8
0
  6
CONTINUOUS
 62
     0
 10
0.9418609273000002
 20
-0.6168609273
 30
0.0
 11
0.9253609273
 21
-0.6168609273
 31
0.0
  0
LINE
  5
2B6
  8
0
  6
CONTINUOUS
 62
     0
 10
0.9918609272999999
 20
-0.6668609273000002
 30
0.0
 11
0.9918609272999999
 21
-0.6833609273000001
 31
0.0
  0
LINE
  5
2B7
  8
0
  6
CENTERX2
 62
     0
 10
0.0
 20
0.05
 30
0.0
 11
0.0
 21
1.45
 31
0.0
  0
LINE
  5
2B8
  8
0
  6
CENTERX2
 62
     0
 10
1.041860927299999
 20
2.1168609272999981
 30
0.0
 11
2.4418609273
 21
2.1168609272999981
 31
0.0
  0
LINE
  5
2B9
  8
0
  6
CENTERX2
 62
     0
 10
2.5418609272999979
 20
2.1168609272999981
 30
0.0
 11
3.9418609273
 21
2.1168609272999981
 31
0.0
  0
LINE
  5
2BA
  8
0
  6
CENTERX2
 62
     0
 10
0.05
 20
1.5
 30
0.0
 11
4.933721854499999
 21
1.5
 31
0.0
  0
LINE
  5
2BB
  8
0
  6
CENTERX2
 62
     0
 10
0.05
 20
0.0
 30
0.0
 11
4.933721854499999
 21
0.0
 31
0.0
  0
LINE
  5
2BC
  8
0
  6
CENTERX2
 62
     0
 10
4.9837218544999979
 20
0.05
 30
0.0
 11
4.9837218544999979
 21
1.45
 31
0.0
  0
LINE
  5
2BD
  8
0
  6
CENTERX2
 62
     0
 10
3.991860927299999
 20
-0.5668609273
 30
0.0
 11
3.991860927299999
 21
2.0668609273
 31
0.0
  0
LINE
  5
2BE
  8
0
  6
CENTERX2
 62
     0
 10
2.5418609272999979
 20
-0.6168609273
 30
0.0
 11
3.9418609273
 21
-0.6168609273
 31
0.0
  0
LINE
  5
2BF
  8
0
  6
CENTERX2
 62
     0
 10
2.4918609272999981
 20
-0.5668609273
 30
0.0
 11
2.4918609272999981
 21
2.0668609273
 31
0.0
  0
LINE
  5
2C0
  8
0
  6
CENTERX2
 62
     0
 10
1.041860927299999
 20
-0.6168609273
 30
0.0
 11
2.4418609273
 21
-0.6168609273
 31
0.0
  0
LINE
  5
2C1
  8
0
  6
CENTERX2
 62
     0
 10
0.9918609272999999
 20
-0.5668609273
 30
0.0
 11
0.9918609272999999
 21
2.0668609273
 31
0.0
  0
ENDBLK
  5
2C2
  8
0
  0
BLOCK
  8
0
  2
*D37
 70
     1
 10
0.0
 20
0.0
 30
0.0
  3
*D37
  1

  0
LINE
  5
3D8
  8
0
  6
CONTINUOUS
 62
     0
 10
2.891724249123909
 20
4.7363601326826883
 30
0.0
 11
2.891724249123909
 21
5.2888109200826872
 31
0.0
  0
LINE
  5
3D9
  8
0
  6
CONTINUOUS
 62
     0
 10
8.0192242491239103
 20
4.7363601326826883
 30
0.0
 11
8.0192242491239103
 21
5.2888109200826872
 31
0.0
  0
LINE
  5
3DA
  8
0
  6
CONTINUOUS
 62
     0
 10
2.9697242491239102
 20
5.2888109200826872
 30
0.0
 11
5.2679742491239088
 21
5.2888109200826872
 31
0.0
  0
LINE
  5
3DB
  8
0
  6
CONTINUOUS
 62
     0
 10
7.94122424912391
 20
5.2888109200826872
 30
0.0
 11
5.6429742491239088
 21
5.2888109200826872
 31
0.0
  0
SOLID
  5
3DC
  8
0
  6
CONTINUOUS
 62
     0
 10
2.9697242491239102
 20
5.3018109200826871
 30
0.0
 11
2.9697242491239102
 21
5.2758109200826873
 31
0.0
 12
2.891724249123909
 22
5.2888109200826872
 32
0.0
 13
2.891724249123909
 23
5.2888109200826872
 33
0.0
  0
SOLID
  5
3DD
  8
0
  6
CONTINUOUS
 62
     0
 10
7.94122424912391
 20
5.3018109200826871
 30
0.0
 11
7.94122424912391
 21
5.2758109200826873
 31
0.0
 12
8.0192242491239103
 22
5.2888109200826872
 32
0.0
 13
8.0192242491239103
 23
5.2888109200826872
 33
0.0
  0
INSERT
  5
3DE
  8
0
  2
*U38
 10
0.0
 20
0.0
 30
0.0
  0
POINT
  5
3DF
  8
DEFPOINTS
  6
CONTINUOUS
 62
     0
 10
2.891724249123909
 20
4.6738601326826883
 30
0.0
  0
POINT
  5
3E0
  8
DEFPOINTS
  6
CONTINUOUS
 62
     0
 10
8.0192242491239103
 20
4.6738601326826883
 30
0.0
  0
POINT
  5
3E1
  8
DEFPOINTS
  6
CONTINUOUS
 62
     0
 10
8.0192242491239103
 20
5.2888109200826872
 30
0.0
  0
ENDBLK
  5
328
  8
0
  0
BLOCK
  8
0
  2
*U38
 70
     1
 10
0.0
 20
0.0
 30
0.0
  3
*U38
  1

  0
TEXT
  5
51C
  8
0
 62
     0
 10
5.29297424912391
 20
5.2388109200826873
 30
0.0
 40
0.1
  1
20.510
 41
0.75
  7
SLDTEXTSTYLE2
  0
ENDBLK
  5
51E
  8
0
  0
BLOCK
  8
0
  2
*D39
 70
     1
 10
0.0
 20
0.0
 30
0.0
  3
*D39
  1

  0
LINE
  5
3E2
  8
0
  6
CONTINUOUS
 62
     0
 10
7.8604742491239099
 20
4.895110132682686
 30
0.0
 11
8.4129250365239123
 21
4.895110132682686
 31
0.0
  0
LINE
  5
3E3
  8
0
  6
CONTINUOUS
 62
     0
 10
7.8604742491239099
 20
2.0176101326826861
 30
0.0
 11
8.4129250365239105
 21
2.0176101326826861
 31
0.0
  0
LINE
  5
3E4
  8
0
  6
CONTINUOUS
 62
     0
 10
8.4129250365239123
 20
4.8171101326826866
 30
0.0
 11
8.4129250365239105
 21
3.531360132682686
 31
0.0
  0
LINE
  5
3E5
  8
0
  6
CONTINUOUS
 62
     0
 10
8.4129250365239105
 20
2.0956101326826859
 30
0.0
 11
8.4129250365239105
 21
3.3813601326826861
 31
0.0
  0
SOLID
  5
3E6
  8
0
  6
CONTINUOUS
 62
     0
 10
8.3999250365239124
 20
4.8171101326826866
 30
0.0
 11
8.4259250365239122
 21
4.8171101326826866
 31
0.0
 12
8.4129250365239123
 22
4.895110132682686
 32
0.0
 13
8.4129250365239123
 23
4.895110132682686
 33
0.0
  0
SOLID
  5
3E7
  8
0
  6
CONTINUOUS
 62
     0
 10
8.3999250365239106
 20
2.0956101326826859
 30
0.0
 11
8.4259250365239104
 21
2.0956101326826859
 31
0.0
 12
8.4129250365239105
 22
2.0176101326826861
 32
0.0
 13
8.4129250365239105
 23
2.0176101326826861
 33
0.0
  0
INSERT
  5
3E8
  8
0
  2
*U40
 10
0.0
 20
0.0
 30
0.0
  0
POINT
  5
3E9
  8
DEFPOINTS
  6
CONTINUOUS
 62
     0
 10
7.7979742491239099
 20
4.895110132682686
 30
0.0
  0
POINT
  5
3EA
  8
DEFPOINTS
  6
CONTINUOUS
 62
     0
 10
7.7979742491239099
 20
2.0176101326826861
 30
0.0
  0
POINT
  5
3EB
  8
DEFPOINTS
  6
CONTINUOUS
 62
     0
 10
8.4129250365239105
 20
2.0176101326826861
 30
0.0
  0
ENDBLK
  5
335
  8
0
  0
BLOCK
  8
0
  2
*U40
 70
     1
 10
0.0
 20
0.0
 30
0.0
  3
*U40
  1

  0
TEXT
  5
520
  8
0
 62
     0
 10
8.2691750365239098
 20
3.406360132682686
 30
0.0
 40
0.1
  1
11.510
 41
0.75
  7
SLDTEXTSTYLE2
  0
ENDBLK
  5
522
  8
0
  0
BLOCK
  8
0
  2
*D41
 70
     1
 10
0.0
 20
0.0
 30
0.0
  3
*D41
  1

  0
LINE
  5
3EC
  8
0
  6
CONTINUOUS
 62
     0
 10
2.891724249123909
 20
2.176360132682686
 30
0.0
 11
2.891724249123909
 21
1.623909345282686
 31
0.0
  0
LINE
  5
3ED
  8
0
  6
CONTINUOUS
 62
     0
 10
2.9636133218239089
 20
2.5773601326826872
 30
0.0
 11
2.9636133218239089
 21
1.623909345282686
 31
0.0
  0
LINE
  5
3EE
  8
0
  6
CONTINUOUS
 62
     0
 10
3.0416133218239101
 20
1.623909345282686
 30
0.0
 11
3.119613321823909
 21
1.623909345282686
 31
0.0
  0
LINE
  5
3EF
  8
0
  6
CONTINUOUS
 62
     0
 10
2.8137242491239092
 20
1.623909345282686
 30
0.0
 11
2.7357242491239102
 21
1.623909345282686
 31
0.0
  0
LINE
  5
3F0
  8
0
  6
CONTINUOUS
 62
     0
 10
2.9636133218239089
 20
1.623909345282686
 30
0.0
 11
2.891724249123909
 21
1.623909345282686
 31
0.0
  0
SOLID
  5
3F1
  8
0
  6
CONTINUOUS
 62
     0
 10
3.0416133218239101
 20
1.6369093452826871
 30
0.0
 11
3.0416133218239101
 21
1.6109093452826859
 31
0.0
 12
2.9636133218239089
 22
1.623909345282686
 32
0.0
 13
2.9636133218239089
 23
1.623909345282686
 33
0.0
  0
SOLID
  5
3F2
  8
0
  6
CONTINUOUS
 62
     0
 10
2.8137242491239092
 20
1.6369093452826871
 30
0.0
 11
2.8137242491239092
 21
1.6109093452826859
 31
0.0
 12
2.891724249123909
 22
1.623909345282686
 32
0.0
 13
2.891724249123909
 23
1.623909345282686
 33
0.0
  0
INSERT
  5
3F3
  8
0
  2
*U42
 10
0.0
 20
0.0
 30
0.0
  0
POINT
  5
3F4
  8
DEFPOINTS
  6
CONTINUOUS
 62
     0
 10
2.891724249123909
 20
2.238860132682686
 30
0.0
  0
POINT
  5
3F5
  8
DEFPOINTS
  6
CONTINUOUS
 62
     0
 10
2.9636133218239089
 20
2.6398601326826872
 30
0.0
  0
POINT
  5
3F6
  8
DEFPOINTS
  6
CONTINUOUS
 62
     0
 10
2.9636133218239089
 20
1.623909345282686
 30
0.0
  0
ENDBLK
  5
342
  8
0
  0
BLOCK
  8
0
  2
*U42
 70
     1
 10
0.0
 20
0.0
 30
0.0
  3
*U42
  1

  0
TEXT
  5
524
  8
0
 62
     0
 10
2.4857242491239102
 20
1.573909345282686
 30
0.0
 40
0.1
  1
.288
 41
0.75
  7
SLDTEXTSTYLE2
  0
ENDBLK
  5
526
  8
0
  0
BLOCK
  8
0
  2
*D43
 70
     1
 10
0.0
 20
0.0
 30
0.0
  3
*D43
  1

  0
LINE
  5
3F7
  8
0
  6
CONTINUOUS
 62
     0
 10
2.891724249123909
 20
2.176360132682686
 30
0.0
 11
2.891724249123909
 21
1.387688872782687
 31
0.0
  0
LINE
  5
3F8
  8
0
  6
CONTINUOUS
 62
     0
 10
3.9554742491239101
 20
1.9604992053826871
 30
0.0
 11
3.9554742491239101
 21
1.387688872782687
 31
0.0
  0
LINE
  5
3F9
  8
0
  6
CONTINUOUS
 62
     0
 10
2.9697242491239102
 20
1.387688872782687
 30
0.0
 11
3.2485992491239091
 21
1.387688872782687
 31
0.0
  0
LINE
  5
3FA
  8
0
  6
CONTINUOUS
 62
     0
 10
3.8774742491239089
 20
1.387688872782687
 30
0.0
 11
3.59859924912391
 21
1.387688872782687
 31
0.0
  0
SOLID
  5
3FB
  8
0
  6
CONTINUOUS
 62
     0
 10
2.9697242491239102
 20
1.4006888727826861
 30
0.0
 11
2.9697242491239102
 21
1.374688872782686
 31
0.0
 12
2.891724249123909
 22
1.387688872782687
 32
0.0
 13
2.891724249123909
 23
1.387688872782687
 33
0.0
  0
SOLID
  5
3FC
  8
0
  6
CONTINUOUS
 62
     0
 10
3.8774742491239089
 20
1.4006888727826861
 30
0.0
 11
3.8774742491239089
 21
1.374688872782686
 31
0.0
 12
3.9554742491239101
 22
1.387688872782687
 32
0.0
 13
3.9554742491239101
 23
1.387688872782687
 33
0.0
  0
INSERT
  5
3FD
  8
0
  2
*U44
 10
0.0
 20
0.0
 30
0.0
  0
POINT
  5
3FE
  8
DEFPOINTS
  6
CONTINUOUS
 62
     0
 10
2.891724249123909
 20
2.238860132682686
 30
0.0
  0
POINT
  5
3FF
  8
DEFPOINTS
  6
CONTINUOUS
 62
     0
 10
3.9554742491239101
 20
2.022999205382686
 30
0.0
  0
POINT
  5
400
  8
DEFPOINTS
  6
CONTINUOUS
 62
     0
 10
3.9554742491239101
 20
1.387688872782687
 30
0.0
  0
ENDBLK
  5
350
  8
0
  0
BLOCK
  8
0
  2
*U44
 70
     1
 10
0.0
 20
0.0
 30
0.0
  3
*U44
  1

  0
TEXT
  5
528
  8
0
 62
     0
 10
3.273599249123909
 20
1.3376888727826859
 30
0.0
 40
0.1
  1
4.255
 41
0.75
  7
SLDTEXTSTYLE2
  0
ENDBLK
  5
52A
  8
0
  0
BLOCK
  8
0
  2
*D45
 70
     1
 10
0.0
 20
0.0
 30
0.0
  3
*D45
  1

  0
LINE
  5
401
  8
0
  6
CONTINUOUS
 62
     0
 10
2.891724249123909
 20
2.176360132682686
 30
0.0
 11
2.891724249123909
 21
1.1514684003826861
 31
0.0
  0
LINE
  5
402
  8
0
  6
CONTINUOUS
 62
     0
 10
5.4554742491239088
 20
1.9604992053826871
 30
0.0
 11
5.4554742491239088
 21
1.1514684003826861
 31
0.0
  0
LINE
  5
403
  8
0
  6
CONTINUOUS
 62
     0
 10
2.9697242491239102
 20
1.1514684003826861
 30
0.0
 11
3.9798492491239101
 21
1.1514684003826861
 31
0.0
  0
LINE
  5
404
  8
0
  6
CONTINUOUS
 62
     0
 10
5.3774742491239103
 20
1.1514684003826861
 30
0.0
 11
4.3673492491239081
 21
1.1514684003826861
 31
0.0
  0
SOLID
  5
405
  8
0
  6
CONTINUOUS
 62
     0
 10
2.9697242491239102
 20
1.1644684003826871
 30
0.0
 11
2.9697242491239102
 21
1.138468400382687
 31
0.0
 12
2.891724249123909
 22
1.1514684003826861
 32
0.0
 13
2.891724249123909
 23
1.1514684003826861
 33
0.0
  0
SOLID
  5
406
  8
0
  6
CONTINUOUS
 62
     0
 10
5.3774742491239103
 20
1.1644684003826871
 30
0.0
 11
5.3774742491239103
 21
1.138468400382687
 31
0.0
 12
5.4554742491239088
 22
1.1514684003826861
 32
0.0
 13
5.4554742491239088
 23
1.1514684003826861
 33
0.0
  0
INSERT
  5
407
  8
0
  2
*U46
 10
0.0
 20
0.0
 30
0.0
  0
POINT
  5
408
  8
DEFPOINTS
  6
CONTINUOUS
 62
     0
 10
2.891724249123909
 20
2.238860132682686
 30
0.0
  0
POINT
  5
409
  8
DEFPOINTS
  6
CONTINUOUS
 62
     0
 10
5.4554742491239088
 20
2.022999205382686
 30
0.0
  0
POINT
  5
40A
  8
DEFPOINTS
  6
CONTINUOUS
 62
     0
 10
5.4554742491239088
 20
1.1514684003826861
 30
0.0
  0
ENDBLK
  5
35D
  8
0
  0
BLOCK
  8
0
  2
*U46
 70
     1
 10
0.0
 20
0.0
 30
0.0
  3
*U46
  1

  0
TEXT
  5
52C
  8
0
 62
     0
 10
4.00484924912391
 20
1.101468400382686
 30
0.0
 40
0.1
  1
10.255
 41
0.75
  7
SLDTEXTSTYLE2
  0
ENDBLK
  5
52E
  8
0
  0
BLOCK
  8
0
  2
*D47
 70
     1
 10
0.0
 20
0.0
 30
0.0
  3
*D47
  1

  0
LINE
  5
40B
  8
0
  6
CONTINUOUS
 62
     0
 10
2.891724249123909
 20
2.176360132682686
 30
0.0
 11
2.891724249123909
 21
0.9152479278826872
 31
0.0
  0
LINE
  5
40C
  8
0
  6
CONTINUOUS
 62
     0
 10
6.9554742491239088
 20
1.9604992053826871
 30
0.0
 11
6.9554742491239088
 21
0.9152479278826872
 31
0.0
  0
LINE
  5
40D
  8
0
  6
CONTINUOUS
 62
     0
 10
2.9697242491239102
 20
0.9152479278826872
 30
0.0
 11
4.72359924912391
 21
0.9152479278826872
 31
0.0
  0
LINE
  5
40E
  8
0
  6
CONTINUOUS
 62
     0
 10
6.8774742491239103
 20
0.9152479278826872
 30
0.0
 11
5.1235992491239104
 21
0.9152479278826872
 31
0.0
  0
SOLID
  5
40F
  8
0
  6
CONTINUOUS
 62
     0
 10
2.9697242491239102
 20
0.9282479278826871
 30
0.0
 11
2.9697242491239102
 21
0.9022479278826867
 31
0.0
 12
2.891724249123909
 22
0.9152479278826872
 32
0.0
 13
2.891724249123909
 23
0.9152479278826872
 33
0.0
  0
SOLID
  5
410
  8
0
  6
CONTINUOUS
 62
     0
 10
6.8774742491239103
 20
0.9282479278826871
 30
0.0
 11
6.8774742491239103
 21
0.9022479278826867
 31
0.0
 12
6.9554742491239088
 22
0.9152479278826872
 32
0.0
 13
6.9554742491239088
 23
0.9152479278826872
 33
0.0
  0
INSERT
  5
411
  8
0
  2
*U48
 10
0.0
 20
0.0
 30
0.0
  0
POINT
  5
412
  8
DEFPOINTS
  6
CONTINUOUS
 62
     0
 10
2.891724249123909
 20
2.238860132682686
 30
0.0
  0
POINT
  5
413
  8
DEFPOINTS
  6
CONTINUOUS
 62
     0
 10
6.9554742491239088
 20
2.022999205382686
 30
0.0
  0
POINT
  5
414
  8
DEFPOINTS
  6
CONTINUOUS
 62
     0
 10
6.9554742491239088
 20
0.9152479278826872
 30
0.0
  0
ENDBLK
  5
36A
  8
0
  0
BLOCK
  8
0
  2
*U48
 70
     1
 10
0.0
 20
0.0
 30
0.0
  3
*U48
  1

  0
TEXT
  5
530
  8
0
 62
     0
 10
4.7485992491239104
 20
0.865247927882687
 30
0.0
 40
0.1
  1
16.255
 41
0.75
  7
SLDTEXTSTYLE2
  0
ENDBLK
  5
532
  8
0
  0
BLOCK
  8
0
  2
*D49
 70
     1
 10
0.0
 20
0.0
 30
0.0
  3
*D49
  1

  0
LINE
  5
415
  8
0
  6
CONTINUOUS
 62
     0
 10
2.891724249123909
 20
2.176360132682686
 30
0.0
 11
2.891724249123909
 21
0.6790274554826877
 31
0.0
  0
LINE
  5
416
  8
0
  6
CONTINUOUS
 62
     0
 10
7.9473351763239091
 20
2.5773601326826872
 30
0.0
 11
7.9473351763239091
 21
0.6790274554826877
 31
0.0
  0
LINE
  5
417
  8
0
  6
CONTINUOUS
 62
     0
 10
2.9697242491239102
 20
0.6790274554826877
 30
0.0
 11
5.2132797127239101
 21
0.6790274554826877
 31
0.0
  0
LINE
  5
418
  8
0
  6
CONTINUOUS
 62
     0
 10
7.8693351763239079
 20
0.6790274554826877
 30
0.0
 11
5.6257797127239089
 21
0.6790274554826877
 31
0.0
  0
SOLID
  5
419
  8
0
  6
CONTINUOUS
 62
     0
 10
2.9697242491239102
 20
0.6920274554826876
 30
0.0
 11
2.9697242491239102
 21
0.6660274554826878
 31
0.0
 12
2.891724249123909
 22
0.6790274554826877
 32
0.0
 13
2.891724249123909
 23
0.6790274554826877
 33
0.0
  0
SOLID
  5
41A
  8
0
  6
CONTINUOUS
 62
     0
 10
7.8693351763239079
 20
0.6920274554826876
 30
0.0
 11
7.8693351763239079
 21
0.6660274554826878
 31
0.0
 12
7.9473351763239091
 22
0.6790274554826877
 32
0.0
 13
7.9473351763239091
 23
0.6790274554826877
 33
0.0
  0
INSERT
  5
41B
  8
0
  2
*U50
 10
0.0
 20
0.0
 30
0.0
  0
POINT
  5
41C
  8
DEFPOINTS
  6
CONTINUOUS
 62
     0
 10
2.891724249123909
 20
2.238860132682686
 30
0.0
  0
POINT
  5
41D
  8
DEFPOINTS
  6
CONTINUOUS
 62
     0
 10
7.9473351763239091
 20
2.6398601326826872
 30
0.0
  0
POINT
  5
41E
  8
DEFPOINTS
  6
CONTINUOUS
 62
     0
 10
7.9473351763239091
 20
0.6790274554826877
 30
0.0
  0
ENDBLK
  5
377
  8
0
  0
BLOCK
  8
0
  2
*U50
 70
     1
 10
0.0
 20
0.0
 30
0.0
  3
*U50
  1

  0
TEXT
  5
534
  8
0
 62
     0
 10
5.2382797127239087
 20
0.6290274554826877
 30
0.0
 40
0.1
  1
20.222
 41
0.75
  7
SLDTEXTSTYLE2
  0
ENDBLK
  5
536
  8
0
  0
BLOCK
  8
0
  2
*D51
 70
     1
 10
0.0
 20
0.0
 30
0.0
  3
*D51
  1

  0
LINE
  5
41F
  8
0
  6
CONTINUOUS
 62
     0
 10
3.050474249123909
 20
2.0176101326826861
 30
0.0
 11
2.94974393412391
 21
2.0176101326826861
 31
0.0
  0
LINE
  5
420
  8
0
  6
CONTINUOUS
 62
     0
 10
3.8264742491239101
 20
2.0894992053826851
 30
0.0
 11
2.94974393412391
 21
2.089499205382686
 31
0.0
  0
LINE
  5
421
  8
0
  6
CONTINUOUS
 62
     0
 10
2.94974393412391
 20
2.1674992053826871
 30
0.0
 11
2.94974393412391
 21
2.2454992053826861
 31
0.0
  0
LINE
  5
422
  8
0
  6
CONTINUOUS
 62
     0
 10
2.94974393412391
 20
1.939610132682686
 30
0.0
 11
2.94974393412391
 21
1.8132351320826861
 31
0.0
  0
LINE
  5
423
  8
0
  6
CONTINUOUS
 62
     0
 10
2.94974393412391
 20
1.8132351320826861
 30
0.0
 11
2.871743934123911
 21
1.8132351320826861
 31
0.0
  0
LINE
  5
424
  8
0
  6
CONTINUOUS
 62
     0
 10
2.94974393412391
 20
2.089499205382686
 30
0.0
 11
2.94974393412391
 21
2.0176101326826861
 31
0.0
  0
SOLID
  5
425
  8
0
  6
CONTINUOUS
 62
     0
 10
2.9367439341239101
 20
2.1674992053826871
 30
0.0
 11
2.962743934123909
 21
2.1674992053826871
 31
0.0
 12
2.94974393412391
 22
2.089499205382686
 32
0.0
 13
2.94974393412391
 23
2.089499205382686
 33
0.0
  0
SOLID
  5
426
  8
0
  6
CONTINUOUS
 62
     0
 10
2.9367439341239101
 20
1.939610132682686
 30
0.0
 11
2.962743934123909
 21
1.939610132682686
 31
0.0
 12
2.94974393412391
 22
2.0176101326826861
 32
0.0
 13
2.94974393412391
 23
2.0176101326826861
 33
0.0
  0
INSERT
  5
427
  8
0
  2
*U52
 10
0.0
 20
0.0
 30
0.0
  0
POINT
  5
428
  8
DEFPOINTS
  6
CONTINUOUS
 62
     0
 10
3.112974249123909
 20
2.0176101326826861
 30
0.0
  0
POINT
  5
429
  8
DEFPOINTS
  6
CONTINUOUS
 62
     0
 10
3.8889742491239101
 20
2.0894992053826851
 30
0.0
  0
POINT
  5
42A
  8
DEFPOINTS
  6
CONTINUOUS
 62
     0
 10
2.94974393412391
 20
2.089499205382686
 30
0.0
  0
ENDBLK
  5
384
  8
0
  0
BLOCK
  8
0
  2
*U52
 70
     1
 10
0.0
 20
0.0
 30
0.0
  3
*U52
  1

  0
TEXT
  5
538
  8
0
 62
     0
 10
2.6217439341239102
 20
1.763235132082686
 30
0.0
 40
0.1
  1
.288
 41
0.75
  7
SLDTEXTSTYLE2
  0
ENDBLK
  5
53A
  8
0
  0
BLOCK
  8
0
  2
*D53
 70
     1
 10
0.0
 20
0.0
 30
0.0
  3
*D53
  1

  0
LINE
  5
42B
  8
0
  6
CONTINUOUS
 62
     0
 10
3.050474249123909
 20
2.0176101326826861
 30
0.0
 11
2.2618029892239111
 21
2.0176101326826861
 31
0.0
  0
LINE
  5
42C
  8
0
  6
CONTINUOUS
 62
     0
 10
2.8346133218239089
 20
2.7063601326826872
 30
0.0
 11
2.2618029892239111
 21
2.7063601326826872
 31
0.0
  0
LINE
  5
42D
  8
0
  6
CONTINUOUS
 62
     0
 10
2.2618029892239111
 20
2.0956101326826859
 30
0.0
 11
2.2618029892239111
 21
2.2869851326826871
 31
0.0
  0
LINE
  5
42E
  8
0
  6
CONTINUOUS
 62
     0
 10
2.2618029892239111
 20
2.628360132682686
 30
0.0
 11
2.2618029892239111
 21
2.436985132682687
 31
0.0
  0
SOLID
  5
42F
  8
0
  6
CONTINUOUS
 62
     0
 10
2.2488029892239112
 20
2.0956101326826859
 30
0.0
 11
2.2748029892239101
 21
2.0956101326826859
 31
0.0
 12
2.2618029892239111
 22
2.0176101326826861
 32
0.0
 13
2.2618029892239111
 23
2.0176101326826861
 33
0.0
  0
SOLID
  5
430
  8
0
  6
CONTINUOUS
 62
     0
 10
2.2488029892239112
 20
2.628360132682686
 30
0.0
 11
2.2748029892239101
 21
2.628360132682686
 31
0.0
 12
2.2618029892239111
 22
2.7063601326826872
 32
0.0
 13
2.2618029892239111
 23
2.7063601326826872
 33
0.0
  0
INSERT
  5
431
  8
0
  2
*U54
 10
0.0
 20
0.0
 30
0.0
  0
POINT
  5
432
  8
DEFPOINTS
  6
CONTINUOUS
 62
     0
 10
3.112974249123909
 20
2.0176101326826861
 30
0.0
  0
POINT
  5
433
  8
DEFPOINTS
  6
CONTINUOUS
 62
     0
 10
2.8971133218239089
 20
2.7063601326826872
 30
0.0
  0
POINT
  5
434
  8
DEFPOINTS
  6
CONTINUOUS
 62
     0
 10
2.2618029892239111
 20
2.7063601326826872
 30
0.0
  0
ENDBLK
  5
393
  8
0
  0
BLOCK
  8
0
  2
*U54
 70
     1
 10
0.0
 20
0.0
 30
0.0
  3
*U54
  1

  0
TEXT
  5
53C
  8
0
 62
     0
 10
2.111802989223909
 20
2.311985132682687
 30
0.0
 40
0.1
  1
2.755
 41
0.75
  7
SLDTEXTSTYLE2
  0
ENDBLK
  5
53E
  8
0
  0
BLOCK
  8
0
  2
*D55
 70
     1
 10
0.0
 20
0.0
 30
0.0
  3
*D55
  1

  0
LINE
  5
435
  8
0
  6
CONTINUOUS
 62
     0
 10
3.050474249123909
 20
2.0176101326826861
 30
0.0
 11
1.7893620443239091
 21
2.0176101326826861
 31
0.0
  0
LINE
  5
436
  8
0
  6
CONTINUOUS
 62
     0
 10
2.8346133218239089
 20
4.206360132682688
 30
0.0
 11
1.7893620443239111
 21
4.206360132682688
 31
0.0
  0
LINE
  5
437
  8
0
  6
CONTINUOUS
 62
     0
 10
1.7893620443239091
 20
2.0956101326826859
 30
0.0
 11
1.7893620443239091
 21
3.0369851326826871
 31
0.0
  0
LINE
  5
438
  8
0
  6
CONTINUOUS
 62
     0
 10
1.7893620443239111
 20
4.1283601326826869
 30
0.0
 11
1.7893620443239091
 21
3.186985132682687
 31
0.0
  0
SOLID
  5
439
  8
0
  6
CONTINUOUS
 62
     0
 10
1.7763620443239101
 20
2.0956101326826859
 30
0.0
 11
1.802362044323909
 21
2.0956101326826859
 31
0.0
 12
1.7893620443239091
 22
2.0176101326826861
 32
0.0
 13
1.7893620443239091
 23
2.0176101326826861
 33
0.0
  0
SOLID
  5
43A
  8
0
  6
CONTINUOUS
 62
     0
 10
1.7763620443239101
 20
4.1283601326826869
 30
0.0
 11
1.8023620443239099
 21
4.1283601326826869
 31
0.0
 12
1.7893620443239111
 22
4.206360132682688
 32
0.0
 13
1.7893620443239111
 23
4.206360132682688
 33
0.0
  0
INSERT
  5
43B
  8
0
  2
*U56
 10
0.0
 20
0.0
 30
0.0
  0
POINT
  5
43C
  8
DEFPOINTS
  6
CONTINUOUS
 62
     0
 10
3.112974249123909
 20
2.0176101326826861
 30
0.0
  0
POINT
  5
43D
  8
DEFPOINTS
  6
CONTINUOUS
 62
     0
 10
2.8971133218239089
 20
4.206360132682688
 30
0.0
  0
POINT
  5
43E
  8
DEFPOINTS
  6
CONTINUOUS
 62
     0
 10
1.7893620443239111
 20
4.206360132682688
 30
0.0
  0
ENDBLK
  5
3A0
  8
0
  0
BLOCK
  8
0
  2
*U56
 70
     1
 10
0.0
 20
0.0
 30
0.0
  3
*U56
  1

  0
TEXT
  5
540
  8
0
 62
     0
 10
1.6393620443239101
 20
3.061985132682687
 30
0.0
 40
0.1
  1
8.755
 41
0.75
  7
SLDTEXTSTYLE2
  0
ENDBLK
  5
542
  8
0
  0
BLOCK
  8
0
  2
*D57
 70
     1
 10
0.0
 20
0.0
 30
0.0
  3
*D57
  1

  0
LINE
  5
43F
  8
0
  6
CONTINUOUS
 62
     0
 10
3.050474249123909
 20
2.0176101326826861
 30
0.0
 11
1.31692109952391
 21
2.0176101326826861
 31
0.0
  0
LINE
  5
440
  8
0
  6
CONTINUOUS
 62
     0
 10
3.8264742491239101
 20
4.8232210598826866
 30
0.0
 11
1.31692109952391
 21
4.8232210598826883
 31
0.0
  0
LINE
  5
441
  8
0
  6
CONTINUOUS
 62
     0
 10
1.31692109952391
 20
2.0956101326826859
 30
0.0
 11
1.31692109952391
 21
3.345415596282685
 31
0.0
  0
LINE
  5
442
  8
0
  6
CONTINUOUS
 62
     0
 10
1.31692109952391
 20
4.7452210598826881
 30
0.0
 11
1.31692109952391
 21
3.4954155962826872
 31
0.0
  0
SOLID
  5
443
  8
0
  6
CONTINUOUS
 62
     0
 10
1.3039210995239101
 20
2.0956101326826859
 30
0.0
 11
1.329921099523909
 21
2.0956101326826859
 31
0.0
 12
1.31692109952391
 22
2.0176101326826861
 32
0.0
 13
1.31692109952391
 23
2.0176101326826861
 33
0.0
  0
SOLID
  5
444
  8
0
  6
CONTINUOUS
 62
     0
 10
1.3039210995239101
 20
4.7452210598826881
 30
0.0
 11
1.3299210995239099
 21
4.7452210598826881
 31
0.0
 12
1.31692109952391
 22
4.8232210598826883
 32
0.0
 13
1.31692109952391
 23
4.8232210598826883
 33
0.0
  0
INSERT
  5
445
  8
0
  2
*U58
 10
0.0
 20
0.0
 30
0.0
  0
POINT
  5
446
  8
DEFPOINTS
  6
CONTINUOUS
 62
     0
 10
3.112974249123909
 20
2.0176101326826861
 30
0.0
  0
POINT
  5
447
  8
DEFPOINTS
  6
CONTINUOUS
 62
     0
 10
3.8889742491239101
 20
4.8232210598826866
 30
0.0
  0
POINT
  5
448
  8
DEFPOINTS
  6
CONTINUOUS
 62
     0
 10
1.31692109952391
 20
4.8232210598826883
 30
0.0
  0
ENDBLK
  5
3AD
  8
0
  0
BLOCK
  8
0
  2
*U58
 70
     1
 10
0.0
 20
0.0
 30
0.0
  3
*U58
  1

  0
TEXT
  5
544
  8
0
 62
     0
 10
1.154421099523909
 20
3.3704155962826872
 30
0.0
 40
0.1
  1
11.222
 41
0.75
  7
SLDTEXTSTYLE2
  0
ENDBLK
  5
546
  8
0
  0
BLOCK
  8
0
  2
*D59
 70
     1
 10
0.0
 20
0.0
 30
0.0
  3
*D59
  1

  0
LINE
  5
449
  8
0
  6
CONTINUOUS
 62
     0
 10
3.050474249123909
 20
2.0176101326826861
 30
0.0
 11
0.8444801546239109
 21
2.017610132682687
 31
0.0
  0
LINE
  5
44A
  8
0
  6
CONTINUOUS
 62
     0
 10
3.050474249123909
 20
4.895110132682686
 30
0.0
 11
0.8444801546239116
 21
4.8951101326826869
 31
0.0
  0
LINE
  5
44B
  8
0
  6
CONTINUOUS
 62
     0
 10
0.8444801546239107
 20
2.0956101326826881
 30
0.0
 11
0.8444801546239109
 21
3.3813601326826861
 31
0.0
  0
LINE
  5
44C
  8
0
  6
CONTINUOUS
 62
     0
 10
0.8444801546239112
 20
4.8171101326826884
 30
0.0
 11
0.8444801546239109
 21
3.5313601326826869
 31
0.0
  0
SOLID
  5
44D
  8
0
  6
CONTINUOUS
 62
     0
 10
0.8314801546239108
 20
2.0956101326826881
 30
0.0
 11
0.8574801546239108
 21
2.0956101326826881
 31
0.0
 12
0.8444801546239107
 22
2.017610132682687
 32
0.0
 13
0.8444801546239107
 23
2.017610132682687
 33
0.0
  0
SOLID
  5
44E
  8
0
  6
CONTINUOUS
 62
     0
 10
0.8314801546239113
 20
4.8171101326826884
 30
0.0
 11
0.8574801546239115
 21
4.8171101326826884
 31
0.0
 12
0.8444801546239112
 22
4.8951101326826869
 32
0.0
 13
0.8444801546239112
 23
4.8951101326826869
 33
0.0
  0
INSERT
  5
44F
  8
0
  2
*U60
 10
0.0
 20
0.0
 30
0.0
  0
POINT
  5
450
  8
DEFPOINTS
  6
CONTINUOUS
 62
     0
 10
3.112974249123909
 20
2.0176101326826861
 30
0.0
  0
POINT
  5
451
  8
DEFPOINTS
  6
CONTINUOUS
 62
     0
 10
3.112974249123909
 20
4.895110132682686
 30
0.0
  0
POINT
  5
452
  8
DEFPOINTS
  6
CONTINUOUS
 62
     0
 10
0.8444801546239112
 20
4.8951101326826869
 30
0.0
  0
ENDBLK
  5
3BA
  8
0
  0
BLOCK
  8
0
  2
*U60
 70
     1
 10
0.0
 20
0.0
 30
0.0
  3
*U60
  1

  0
TEXT
  5
548
  8
0
 62
     0
 10
0.7007301546239108
 20
3.406360132682686
 30
0.0
 40
0.1
  1
11.510
 41
0.75
  7
SLDTEXTSTYLE2
  0
ENDBLK
  5
54A
  8
0
  0
BLOCK
  8
0
  2
*D61
 70
     1
 10
0.0
 20
0.0
 30
0.0
  3
*D61
  1

  0
LINE
  5
453
  8
0
  6
CONTINUOUS
 62
     0
 10
3.2860571871239079
 20
5.723617701882687
 30
0.0
 11
3.4356300054146081
 21
5.723617701882687
 31
0.0
  0
LINE
  5
454
  8
0
  6
CONTINUOUS
 62
     0
 10
3.4356300054146081
 20
5.723617701882687
 30
0.0
 11
3.8957242491181678
 21
4.9267110956745572
 31
0.0
  0
INSERT
  5
455
  8
0
  2
*U62
 10
0.0
 20
0.0
 30
0.0
  0
SOLID
  5
456
  8
0
  6
CONTINUOUS
 62
     0
 10
3.9069825793668129
 20
4.933211095675512
 30
0.0
 11
3.8844659188695241
 21
4.9202110956735989
 31
0.0
 12
3.9347242491239101
 22
4.859161114182684
 32
0.0
 13
3.9347242491239101
 23
4.859161114182684
 33
0.0
  0
POINT
  5
457
  8
DEFPOINTS
  6
CONTINUOUS
 62
     0
 10
3.9347242491239101
 20
4.859161114182684
 30
0.0
  0
POINT
  5
458
  8
DEFPOINTS
  6
CONTINUOUS
 62
     0
 10
3.976224249123907
 20
4.7872810056826838
 30
0.0
  0
ENDBLK
  5
3C8
  8
0
  0
BLOCK
  8
0
  2
*U62
 70
     1
 10
0.0
 20
0.0
 30
0.0
  3
*U62
  1

  0
TEXT
  5
54C
  8
0
 62
     0
 10
2.0235571871239091
 20
5.7576737684617481
 30
0.0
 40
0.1
  1
10X \U+2205.332 THRU ALL
 41
0.75
  7
SLDTEXTSTYLE2
  0
TEXT
  5
54D
  8
0
 62
     0
 10
2.0163134289110318
 20
5.5910071017950811
 30
0.0
 40
0.1
  1
w
 41
0.75
  7
SLDTEXTSTYLE2
  0
TEXT
  5
54E
  8
0
 62
     0
 10
2.1839546904090601
 20
5.5910071017950811
 30
0.0
 40
0.1
  1
\U+2205 .332 X 100°
 41
0.75
  7
SLDTEXTSTYLE2
  0
ENDBLK
  5
550
  8
0
  0
BLOCK
  8
0
  2
*D63
 70
     1
 10
0.0
 20
0.0
 30
0.0
  3
*D63
  1

  0
LINE
  5
459
  8
0
  6
CONTINUOUS
 62
     0
 10
2.5770876623773331
 20
5.1896337717826864
 30
0.0
 11
2.655087662377333
 21
5.1896337717826864
 31
0.0
  0
LINE
  5
45A
  8
0
  6
CONTINUOUS
 62
     0
 10
2.655087662377333
 20
5.1896337717826864
 30
0.0
 11
2.9143037146705519
 21
4.8976470430288153
 31
0.0
  0
INSERT
  5
45B
  8
0
  2
*U64
 10
0.0
 20
0.0
 30
0.0
  0
SOLID
  5
45C
  8
0
  6
CONTINUOUS
 62
     0
 10
2.9240254517949049
 20
4.9062776761043763
 30
0.0
 11
2.9045819775461958
 21
4.889016409953256
 31
0.0
 12
2.9660875131239091
 22
4.8393166202826867
 32
0.0
 13
2.9660875131239091
 23
4.8393166202826867
 33
0.0
  0
POINT
  5
45D
  8
DEFPOINTS
  6
CONTINUOUS
 62
     0
 10
2.9660875131239091
 20
4.8393166202826867
 30
0.0
  0
POINT
  5
45E
  8
DEFPOINTS
  6
CONTINUOUS
 62
     0
 10
3.1129742491239112
 20
4.6738601326826883
 30
0.0
  0
ENDBLK
  5
3D1
  8
0
  0
BLOCK
  8
0
  2
*U64
 70
     1
 10
0.0
 20
0.0
 30
0.0
  3
*U64
  1

  0
TEXT
  5
552
  8
0
 62
     0
 10
2.0270876623773342
 20
5.1396337717826848
 30
0.0
 40
0.1
  1
4x R.885
 41
0.75
  7
SLDTEXTSTYLE2
  0
ENDBLK
  5
554
  8
0
  0
BLOCK
  8
0
  2
*D65
 70
     1
 10
0.0
 20
0.0
 30
0.0
  3
*D65
  1

  0
LINE
  5
476
  8
0
 62
     0
 10
7.6110142175887123
 20
9.7698120784621096
 30
0.0
 11
7.4310142175887108
 21
9.7698120784621096
 31
0.0
  0
LINE
  5
477
  8
0
 62
     0
 10
7.4310142175887108
 20
9.7698120784621096
 30
0.0
 11
7.234878383047552
 21
9.1861382731563186
 31
0.0
  0
INSERT
  5
478
  8
0
  2
*U66
 10
0.0
 20
0.0
 30
0.0
  0
SOLID
  5
479
  8
0
 62
     0
 10
7.2064410314063867
 20
9.1956942676956981
 30
0.0
 11
7.2633157346887183
 21
9.1765822786169426
 31
0.0
 12
7.1775424158112786
 22
9.0155141633093194
 32
0.0
 13
7.1775424158112786
 23
9.0155141633093194
 33
0.0
  0
LINE
  5
47A
  8
0
 62
     0
 10
7.0567243341832953
 20
8.9238037065327198
 30
0.0
 11
7.2367243341832941
 21
8.9238037065327198
 31
0.0
  0
LINE
  5
47B
  8
0
 62
     0
 10
7.1467243341832951
 20
8.8338037065327182
 30
0.0
 11
7.1467243341832951
 21
9.0138037065327197
 31
0.0
  0
POINT
  5
47C
  8
DEFPOINTS
 62
     0
 10
7.1775424158112786
 20
9.0155141633093194
 30
0.0
  0
POINT
  5
47D
  8
DEFPOINTS
 62
     0
 10
7.115906252555309
 20
8.8320932497561131
 30
0.0
  0
ENDBLK
  5
46C
  8
0
  0
BLOCK
  8
0
  2
*U66
 70
     1
 10
0.0
 20
0.0
 30
0.0
  3
*U66
  1

  0
TEXT
  5
559
  8
0
 62
     0
 10
7.690823221681482
 20
9.6834341794170875
 30
0.0
 40
0.18
  1
Ø0.1935
  0
ENDBLK
  5
55B
  8
0
  0
BLOCK
  8
0
  2
*D68
 70
     1
 10
0.0
 20
0.0
 30
0.0
  3
*D68
  1

  0
LINE
  5
67E
  8
0
 62
     0
 10
20.865689017230309
 20
9.3739450962682707
 30
0.0
 11
23.590387362423591
 21
9.3739450962682707
 31
0.0
  0
LINE
  5
67F
  8
0
 62
     0
 10
20.26824507999309
 20
12.1289447857925
 30
0.0
 11
23.590387362423591
 21
12.1289447857925
 31
0.0
  0
LINE
  5
680
  8
0
 62
     0
 10
23.410387362423592
 20
9.5539450962682704
 30
0.0
 11
23.410387362423592
 21
10.57144494103038
 31
0.0
  0
LINE
  5
681
  8
0
 62
     0
 10
23.410387362423592
 20
11.9489447857925
 30
0.0
 11
23.410387362423592
 21
10.93144494103038
 31
0.0
  0
SOLID
  5
682
  8
0
 62
     0
 10
23.380387362423591
 20
9.5539450962682704
 30
0.0
 11
23.440387362423589
 21
9.5539450962682704
 31
0.0
 12
23.410387362423592
 22
9.3739450962682707
 32
0.0
 13
23.410387362423592
 23
9.3739450962682707
 33
0.0
  0
SOLID
  5
683
  8
0
 62
     0
 10
23.380387362423591
 20
11.9489447857925
 30
0.0
 11
23.440387362423589
 21
11.9489447857925
 31
0.0
 12
23.410387362423592
 22
12.1289447857925
 32
0.0
 13
23.410387362423592
 23
12.1289447857925
 33
0.0
  0
INSERT
  5
684
  8
0
  2
*U70
 10
0.0
 20
0.0
 30
0.0
  0
POINT
  5
685
  8
DEFPOINTS
 62
     0
 10
20.803189017230309
 20
9.3739450962682707
 30
0.0
  0
POINT
  5
686
  8
DEFPOINTS
 62
     0
 10
20.20574507999309
 20
12.1289447857925
 30
0.0
  0
POINT
  5
687
  8
DEFPOINTS
 62
     0
 10
23.410387362423592
 20
12.1289447857925
 30
0.0
  0
ENDBLK
  5
67D
  8
0
  0
BLOCK
  8
0
  2
*D69
 70
     1
 10
0.0
 20
0.0
 30
0.0
  3
*D69
  1

  0
LINE
  5
68C
  8
0
 62
     0
 10
20.865689017230309
 20
3.3739452445276479
 30
0.0
 11
22.514128544091921
 21
3.3739452445276479
 31
0.0
  0
LINE
  5
68D
  8
0
 62
     0
 10
20.26824507999309
 20
0.6189455546034131
 30
0.0
 11
22.514128544091921
 21
0.6189455546034124
 31
0.0
  0
LINE
  5
68E
  8
0
 62
     0
 10
22.334128544091929
 20
3.1939452445276482
 30
0.0
 11
22.334128544091929
 21
2.1764453995655302
 31
0.0
  0
LINE
  5
68F
  8
0
 62
     0
 10
22.334128544091929
 20
0.7989455546034124
 30
0.0
 11
22.334128544091929
 21
1.8164453995655301
 31
0.0
  0
SOLID
  5
690
  8
0
 62
     0
 10
22.304128544091931
 20
3.1939452445276482
 30
0.0
 11
22.36412854409193
 21
3.1939452445276482
 31
0.0
 12
22.334128544091929
 22
3.3739452445276479
 32
0.0
 13
22.334128544091929
 23
3.3739452445276479
 33
0.0
  0
SOLID
  5
691
  8
0
 62
     0
 10
22.304128544091931
 20
0.7989455546034124
 30
0.0
 11
22.36412854409193
 21
0.7989455546034124
 31
0.0
 12
22.334128544091929
 22
0.6189455546034124
 32
0.0
 13
22.334128544091929
 23
0.6189455546034124
 33
0.0
  0
INSERT
  5
692
  8
0
  2
*U71
 10
0.0
 20
0.0
 30
0.0
  0
POINT
  5
693
  8
DEFPOINTS
 62
     0
 10
20.803189017230309
 20
3.3739452445276479
 30
0.0
  0
POINT
  5
694
  8
DEFPOINTS
 62
     0
 10
20.20574507999309
 20
0.6189455546034131
 30
0.0
  0
POINT
  5
695
  8
DEFPOINTS
 62
     0
 10
22.334128544091929
 20
0.6189455546034124
 30
0.0
  0
ENDBLK
  5
68B
  8
0
  0
BLOCK
  8
0
  2
*U70
 70
     1
 10
0.0
 20
0.0
 30
0.0
  3
*U70
  1

  0
TEXT
  5
6F5
  8
0
 62
     0
 10
22.975387362423589
 20
10.661444941030391
 30
0.0
 40
0.18
  1
2.7550
  0
ENDBLK
  5
6F7
  8
0
  0
BLOCK
  8
0
  2
*U71
 70
     1
 10
0.0
 20
0.0
 30
0.0
  3
*U71
  1

  0
TEXT
  5
6F9
  8
0
 62
     0
 10
21.89912854409193
 20
1.906445399565533
 30
0.0
 40
0.18
  1
2.7550
  0
ENDBLK
  5
6FB
  8
0
  0
ENDSEC
  0
SECTION
  2
ENTITIES
  0
CIRCLE
  5
2FB
  8
0
  6
CONTINUOUS
 62
     7
 10
16.835745406465431
 20
0.9065015962979282
 30
0.0
 40
0.0967499976093175
  0
CIRCLE
  5
2FD
  8
0
  6
CONTINUOUS
 62
     7
 10
10.83574555472482
 20
11.84138874409798
 30
0.0
 40
0.0967499976093139
  0
CIRCLE
  5
2FF
  8
0
  6
CONTINUOUS
 62
     7
 10
20.803189017230309
 20
3.3739452445276479
 30
0.0
 40
0.0967499976093139
  0
CIRCLE
  5
30F
  8
0
  6
CONTINUOUS
 62
     7
 10
20.803189017230309
 20
9.3739450962682707
 30
0.0
 40
0.0967499976093175
  0
CIRCLE
  5
310
  8
0
  6
CONTINUOUS
 62
     7
 10
0.8683020918193281
 20
9.3739450962682707
 30
0.0
 40
0.0967499976093175
  0
CIRCLE
  5
311
  8
0
  6
CONTINUOUS
 62
     7
 10
16.835745406465431
 20
11.84138874409798
 30
0.0
 40
0.0967499976093139
  0
CIRCLE
  5
312
  8
0
  6
CONTINUOUS
 62
     7
 10
0.8683020918193281
 20
3.3739452445276479
 30
0.0
 40
0.0967499976093139
  0
CIRCLE
  5
313
  8
0
  6
CONTINUOUS
 62
     7
 10
4.835745702984199
 20
0.9065015962979282
 30
0.0
 40
0.0967499976093175
  0
CIRCLE
  5
314
  8
0
  6
CONTINUOUS
 62
     7
 10
4.835745702984199
 20
11.84138874409798
 30
0.0
 40
0.0967499976093139
  0
CIRCLE
  5
315
  8
0
  6
CONTINUOUS
 62
     7
 10
10.83574555472482
 20
0.9065015962979282
 30
0.0
 40
0.0967499976093175
  0
POLYLINE
  5
678
  8
0
 66
     1
 10
0.0
 20
0.0
 30
0.0
 70
     1
  0
VERTEX
  5
6EB
  8
0
 10
21.05449555452482
 20
11.22894517039796
 30
0.0
 42
0.4142135623730944
  0
VERTEX
  5
6EC
  8
0
 10
20.19074555452482
 20
12.09269517039796
 30
0.0
  0
VERTEX
  5
6ED
  8
0
 10
1.4807455545248229
 20
12.09269517039796
 30
0.0
 42
0.4142135623730964
  0
VERTEX
  5
6EE
  8
0
 10
0.6169955545248201
 20
11.22894517039796
 30
0.0
  0
VERTEX
  5
6EF
  8
0
 10
0.6169955545248201
 20
1.5189451703979591
 30
0.0
 42
0.4142135623730948
  0
VERTEX
  5
6F0
  8
0
 10
1.4807455545248229
 20
0.6551951703979581
 30
0.0
  0
VERTEX
  5
6F1
  8
0
 10
20.19074555452482
 20
0.6551951703979598
 30
0.0
 42
0.4142135623730951
  0
VERTEX
  5
6F2
  8
0
 10
21.05449555452482
 20
1.5189451703979591
 30
0.0
  0
SEQEND
  5
6F3
  8
0
  0
ENDSEC
  0
EOF
