  0
SECTION
  2
HEADER
  9
$ACADVER
  1
AC1009
  9
$INSBASE
 10
0.0
 20
0.0
 30
0.0
  9
$EXTMIN
 10
0.3746970336417932
 20
-0.3418766990964479
 30
0.0
  9
$EXTMAX
 10
53.539162268250692
 20
16.280570161043119
 30
0.0
  9
$LIMMIN
 10
0.0
 20
0.0
  9
$LIMMAX
 10
12.0
 20
9.0
  9
$ORTHOMODE
 70
     0
  9
$REGENMODE
 70
     1
  9
$FILLMODE
 70
     1
  9
$QTEXTMODE
 70
     0
  9
$MIRRTEXT
 70
     0
  9
$DRAGMODE
 70
     2
  9
$LTSCALE
 40
1.0
  9
$OSMODE
 70
  2087
  9
$ATTMODE
 70
     1
  9
$TEXTSIZE
 40
0.2
  9
$TRACEWID
 40
0.05
  9
$TEXTSTYLE
  7
STANDARD
  9
$CLAYER
  8
0
  9
$CELTYPE
  6
BYLAYER
  9
$CECOLOR
 62
   256
  9
$DIMSCALE
 40
1.0
  9
$DIMASZ
 40
0.18
  9
$DIMEXO
 40
0.0625
  9
$DIMDLI
 40
0.38
  9
$DIMRND
 40
0.0
  9
$DIMDLE
 40
0.0
  9
$DIMEXE
 40
0.18
  9
$DIMTP
 40
0.0
  9
$DIMTM
 40
0.0
  9
$DIMTXT
 40
0.18
  9
$DIMCEN
 40
0.09
  9
$DIMTSZ
 40
0.0
  9
$DIMTOL
 70
     0
  9
$DIMLIM
 70
     0
  9
$DIMTIH
 70
     1
  9
$DIMTOH
 70
     1
  9
$DIMSE1
 70
     0
  9
$DIMSE2
 70
     0
  9
$DIMTAD
 70
     0
  9
$DIMZIN
 70
     0
  9
$DIMBLK
  1

  9
$DIMASO
 70
     1
  9
$DIMSHO
 70
     1
  9
$DIMPOST
  1

  9
$DIMAPOST
  1

  9
$DIMALT
 70
     0
  9
$DIMALTD
 70
     2
  9
$DIMALTF
 40
25.399999999999999
  9
$DIMLFAC
 40
1.0
  9
$DIMTOFL
 70
     0
  9
$DIMTVP
 40
0.0
  9
$DIMTIX
 70
     0
  9
$DIMSOXD
 70
     0
  9
$DIMSAH
 70
     0
  9
$DIMBLK1
  1

  9
$DIMBLK2
  1

  9
$DIMSTYLE
  2
STANDARD
  9
$DIMCLRD
 70
     0
  9
$DIMCLRE
 70
     0
  9
$DIMCLRT
 70
     0
  9
$DIMTFAC
 40
1.0
  9
$DIMGAP
 40
0.09
  9
$LUNITS
 70
     2
  9
$LUPREC
 70
     4
  9
$SKETCHINC
 40
0.1
  9
$FILLETRAD
 40
0.8949999999999999
  9
$AUNITS
 70
     0
  9
$AUPREC
 70
     0
  9
$MENU
  1
.
  9
$ELEVATION
 40
0.0
  9
$PELEVATION
 40
0.0
  9
$THICKNESS
 40
0.0
  9
$LIMCHECK
 70
     0
  9
$BLIPMODE
 70
     0
  9
$CHAMFERA
 40
0.0
  9
$CHAMFERB
 40
0.0
  9
$SKPOLY
 70
     0
  9
$TDCREATE
 40
2459060.4906033692
  9
$TDUPDATE
 40
2459062.5766761461
  9
$TDINDWG
 40
0.0028963079
  9
$TDUSRTIMER
 40
0.0028962731
  9
$USRTIMER
 70
     1
  9
$ANGBASE
 50
0.0
  9
$ANGDIR
 70
     0
  9
$PDMODE
 70
     0
  9
$PDSIZE
 40
0.0
  9
$PLINEWID
 40
0.0
  9
$COORDS
 70
     1
  9
$SPLFRAME
 70
     0
  9
$SPLINETYPE
 70
     6
  9
$SPLINESEGS
 70
     8
  9
$ATTDIA
 70
     1
  9
$ATTREQ
 70
     1
  9
$HANDLING
 70
     1
  9
$HANDSEED
  5
4F0
  9
$SURFTAB1
 70
     6
  9
$SURFTAB2
 70
     6
  9
$SURFTYPE
 70
     6
  9
$SURFU
 70
     6
  9
$SURFV
 70
     6
  9
$UCSNAME
  2

  9
$UCSORG
 10
0.0
 20
0.0
 30
0.0
  9
$UCSXDIR
 10
1.0
 20
0.0
 30
0.0
  9
$UCSYDIR
 10
0.0
 20
1.0
 30
0.0
  9
$PUCSNAME
  2

  9
$PUCSORG
 10
0.0
 20
0.0
 30
0.0
  9
$PUCSXDIR
 10
1.0
 20
0.0
 30
0.0
  9
$PUCSYDIR
 10
0.0
 20
1.0
 30
0.0
  9
$USERI1
 70
     0
  9
$USERI2
 70
     0
  9
$USERI3
 70
     0
  9
$USERI4
 70
     0
  9
$USERI5
 70
     0
  9
$USERR1
 40
0.0
  9
$USERR2
 40
0.0
  9
$USERR3
 40
0.0
  9
$USERR4
 40
0.0
  9
$USERR5
 40
0.0
  9
$WORLDVIEW
 70
     1
  9
$SHADEDGE
 70
     3
  9
$SHADEDIF
 70
    70
  9
$TILEMODE
 70
     1
  9
$MAXACTVP
 70
    64
  9
$PLIMCHECK
 70
     0
  9
$PEXTMIN
 10
0.0
 20
0.0
 30
0.0
  9
$PEXTMAX
 10
0.0
 20
0.0
 30
0.0
  9
$PLIMMIN
 10
0.0
 20
0.0
  9
$PLIMMAX
 10
12.0
 20
9.0
  9
$UNITMODE
 70
     0
  9
$VISRETAIN
 70
     1
  9
$PLINEGEN
 70
     0
  9
$PSLTSCALE
 70
     1
  0
ENDSEC
  0
SECTION
  2
TABLES
  0
TABLE
  2
VPORT
 70
     1
  0
VPORT
  2
*ACTIVE
 70
     0
 10
0.0
 20
0.0
 11
1.0
 21
1.0
 12
2.0781658596402499
 22
7.0303021279888434
 13
0.0
 23
0.0
 14
0.5
 24
0.5
 15
0.5
 25
0.5
 16
0.0
 26
0.0
 36
1.0
 17
0.0
 27
0.0
 37
0.0
 40
48.56720043642845
 41
2.2927120669056151
 42
50.0
 43
0.0
 44
0.0
 50
0.0
 51
0.0
 71
     0
 72
  1000
 73
     1
 74
     3
 75
     0
 76
     1
 77
     0
 78
     0
  0
ENDTAB
  0
TABLE
  2
LTYPE
 70
     2
  0
LTYPE
  2
CONTINUOUS
 70
     0
  3
Solid line
 72
    65
 73
     0
 40
0.0
  0
ENDTAB
  0
TABLE
  2
LAYER
 70
     2
  0
LAYER
  2
0
 70
     0
 62
     7
  6
CONTINUOUS
  0
LAYER
  2
DEFPOINTS
 70
     0
 62
     7
  6
CONTINUOUS
  0
ENDTAB
  0
TABLE
  2
STYLE
 70
     3
  0
STYLE
  2
STANDARD
 70
     0
 40
0.0
 41
1.0
 50
0.0
 71
     0
 42
0.2
  3
txt
  4

  0
STYLE
  2
ANNOTATIVE
 70
     0
 40
0.0
 41
1.0
 50
0.0
 71
     0
 42
0.2
  3
txt
  4

  0
STYLE
  2
SLDTEXTSTYLE2
 70
     0
 40
0.0
 41
0.75
 50
0.0
 71
     0
 42
0.1
  3
TXT
  4

  0
ENDTAB
  0
TABLE
  2
VIEW
 70
     0
  0
ENDTAB
  0
TABLE
  2
UCS
 70
     0
  0
ENDTAB
  0
TABLE
  2
APPID
 70
     9
  0
APPID
  2
ACAD
 70
     0
  0
APPID
  2
ACADANNOTATIVE
 70
     0
  0
APPID
  2
ACADANNOPO
 70
     0
  0
APPID
  2
ACAD_DSTYLE_DIMJAG
 70
     0
  0
APPID
  2
ACAD_DSTYLE_DIMTALN
 70
     0
  0
APPID
  2
ACAD_MLEADERVER
 70
     0
  0
APPID
  2
ACAD_NAV_VCDISPLAY
 70
     0
  0
APPID
  2
ACAD_EXEMPT_FROM_CAD_STANDARDS
 70
     0
  0
APPID
  2
ACAD_DSTYLE_DIMRADIAL_EXTENSION
 70
     0
  0
ENDTAB
  0
TABLE
  2
DIMSTYLE
 70
     6
  0
DIMSTYLE
  2
STANDARD
 70
     0
  3

  4

  5

  6

  7

 40
1.0
 41
0.18
 42
0.0625
 43
0.38
 44
0.18
 45
0.0
 46
0.0
 47
0.0
 48
0.0
140
0.18
141
0.09
142
0.0
143
25.399999999999999
144
1.0
145
0.0
146
1.0
147
0.09
 71
     0
 72
     0
 73
     1
 74
     1
 75
     0
 76
     0
 77
     0
 78
     0
170
     0
171
     2
172
     0
173
     0
174
     0
175
     0
176
     0
177
     0
178
     0
  0
DIMSTYLE
  2
ANNOTATIVE
 70
     0
  3

  4

  5

  6

  7

 40
0.0
 41
0.18
 42
0.0625
 43
0.38
 44
0.18
 45
0.0
 46
0.0
 47
0.0
 48
0.0
140
0.18
141
0.09
142
0.0
143
25.399999999999999
144
1.0
145
0.0
146
1.0
147
0.09
 71
     0
 72
     0
 73
     1
 74
     1
 75
     0
 76
     0
 77
     0
 78
     0
170
     0
171
     2
172
     0
173
     0
174
     0
175
     0
176
     0
177
     0
178
     0
  0
DIMSTYLE
  2
SLDDIMSTYLE0
 70
     0
  3

  4

  5

  6

  7

 40
1.0
 41
0.078
 42
0.0625
 43
0.38
 44
0.0
 45
0.000000001
 46
0.0
 47
0.0
 48
0.0
140
0.1
141
0.09
142
0.0
143
25.399999999999999
144
4.0
145
0.0
146
1.0
147
0.025
 71
     0
 72
     0
 73
     1
 74
     1
 75
     0
 76
     0
 77
     0
 78
     4
170
     0
171
     2
172
     0
173
     1
174
     0
175
     0
176
     0
177
     0
178
     0
  0
DIMSTYLE
  2
SLDDIMSTYLE1
 70
     0
  3

  4

  5

  6

  7

 40
1.0
 41
0.078
 42
0.0625
 43
0.38
 44
0.0
 45
0.000000001
 46
0.0
 47
0.0
 48
0.0
140
0.1
141
0.0
142
0.0
143
25.399999999999999
144
4.0
145
0.0
146
1.0
147
0.025
 71
     0
 72
     0
 73
     1
 74
     1
 75
     0
 76
     0
 77
     0
 78
    12
170
     0
171
     2
172
     0
173
     1
174
     0
175
     0
176
     0
177
     0
178
     0
  0
DIMSTYLE
  2
SLDDIMSTYLE2
 70
     0
  3

  4

  5

  6

  7

 40
1.0
 41
0.078
 42
0.0625
 43
0.38
 44
0.0
 45
0.000000001
 46
0.0
 47
0.0
 48
0.0
140
0.1
141
0.09
142
0.0
143
25.399999999999999
144
4.0
145
0.0
146
1.0
147
0.025
 71
     0
 72
     0
 73
     1
 74
     1
 75
     0
 76
     0
 77
     0
 78
    12
170
     0
171
     2
172
     0
173
     1
174
     0
175
     0
176
     0
177
     0
178
     0
  0
ENDTAB
  0
ENDSEC
  0
SECTION
  2
BLOCKS
  0
BLOCK
  8
0
  2
$MODEL_SPACE
 70
     0
 10
0.0
 20
0.0
 30
0.0
  3
$MODEL_SPACE
  1

  0
ENDBLK
  5
42C
  8
0
  0
BLOCK
 67
     1
  8
0
  2
$PAPER_SPACE
 70
     0
 10
0.0
 20
0.0
 30
0.0
  3
$PAPER_SPACE
  1

  0
ENDBLK
  5
428
 67
     1
  8
0
  0
BLOCK
  8
0
  2
_D
 70
     0
 10
0.0
 20
0.0
 30
0.0
  3
_D
  1

  0
SOLID
  5
1EB
  8
0
  6
CONTINUOUS
 62
     7
 10
7.084992537599998
 20
7.4739736663
 30
0.0
 11
7.0069925375999986
 21
7.4869736662999982
 31
0.0
 12
7.0069925375999986
 22
7.4609736663000001
 32
0.0
 13
7.0069925375999986
 23
7.4609736663000001
 33
0.0
  0
SOLID
  5
1EC
  8
0
  6
CONTINUOUS
 62
     7
 10
1.969992537599998
 20
7.4739736663
 30
0.0
 11
2.0479925375999981
 21
7.4609736663000001
 31
0.0
 12
2.0479925375999981
 22
7.4869736662999982
 32
0.0
 13
2.0479925375999981
 23
7.4869736662999982
 33
0.0
  0
LINE
  5
1ED
  8
0
  6
CONTINUOUS
 62
     7
 10
7.084992537599998
 20
6.8940228788999987
 30
0.0
 11
7.084992537599998
 21
7.5239736662999981
 31
0.0
  0
LINE
  5
1EE
  8
0
  6
CONTINUOUS
 62
     7
 10
1.969992537599998
 20
6.8940228788999987
 30
0.0
 11
1.969992537599998
 21
7.5239736662999981
 31
0.0
  0
LINE
  5
1EF
  8
0
  6
CONTINUOUS
 62
     7
 10
7.084992537599998
 20
7.4739736663
 30
0.0
 11
4.7306869936
 21
7.4739736663
 31
0.0
  0
LINE
  5
1F0
  8
0
  6
CONTINUOUS
 62
     7
 10
1.969992537599998
 20
7.4739736663
 30
0.0
 11
4.3242980815000003
 21
7.4739736663
 31
0.0
  0
INSERT
  5
1F1
  8
0
  2
*U3
 10
0.0
 20
0.0
 30
0.0
  0
ENDBLK
  5
1F2
  8
0
  0
BLOCK
  8
0
  2
*U3
 70
     1
 10
0.0
 20
0.0
 30
0.0
  3
*U3
  1

  0
TEXT
  5
37E
  8
0
 62
     7
 10
4.3242980815000003
 20
7.4235054397000004
 30
0.0
 40
0.1
  1
20.460
 41
0.75
  7
SLDTEXTSTYLE2
  0
ENDBLK
  5
380
  8
0
  0
BLOCK
  8
0
  2
_D_1
 70
     0
 10
0.0
 20
0.0
 30
0.0
  3
_D_1
  1

  0
SOLID
  5
1F5
  8
0
  6
CONTINUOUS
 62
     7
 10
1.5762917502
 20
7.080272878899998
 30
0.0
 11
1.5632917502000001
 21
7.0022728788999986
 31
0.0
 12
1.589291750199999
 22
7.0022728788999986
 32
0.0
 13
1.589291750199999
 23
7.0022728788999986
 33
0.0
  0
SOLID
  5
1F6
  8
0
  6
CONTINUOUS
 62
     7
 10
1.5762917502
 20
3.2102728788999979
 30
0.0
 11
1.589291750199999
 21
3.2882728788999991
 31
0.0
 12
1.5632917502000001
 22
3.2882728788999991
 32
0.0
 13
1.5632917502000001
 23
3.2882728788999991
 33
0.0
  0
LINE
  5
1F7
  8
0
  6
CONTINUOUS
 62
     7
 10
2.1562425375999981
 20
7.080272878899998
 30
0.0
 11
1.5262917502
 21
7.080272878899998
 31
0.0
  0
LINE
  5
1F8
  8
0
  6
CONTINUOUS
 62
     7
 10
2.1562425375999981
 20
3.2102728788999979
 30
0.0
 11
1.5262917502
 21
3.2102728788999979
 31
0.0
  0
LINE
  5
1F9
  8
0
  6
CONTINUOUS
 62
     7
 10
1.5762917502
 20
7.080272878899998
 30
0.0
 11
1.5762917502
 21
5.2246478793999991
 31
0.0
  0
LINE
  5
1FA
  8
0
  6
CONTINUOUS
 62
     7
 10
1.5762917502
 20
3.2102728788999979
 30
0.0
 11
1.5762917502
 21
5.0658978782999986
 31
0.0
  0
INSERT
  5
1FB
  8
0
  2
*U5
 10
0.0
 20
0.0
 30
0.0
  0
ENDBLK
  5
1FC
  8
0
  0
BLOCK
  8
0
  2
*U5
 70
     1
 10
0.0
 20
0.0
 30
0.0
  3
*U5
  1

  0
TEXT
  5
382
  8
0
 62
     7
 10
1.373097294099999
 20
5.0948046522999988
 30
0.0
 40
0.1
  1
15.480
 41
0.75
  7
SLDTEXTSTYLE2
  0
ENDBLK
  5
384
  8
0
  0
BLOCK
  8
0
  2
_D_2
 70
     0
 10
0.0
 20
0.0
 30
0.0
  3
_D_2
  1

  0
SOLID
  5
1FF
  8
0
  6
CONTINUOUS
 62
     7
 10
2.0298178461999981
 20
7.0103292949
 30
0.0
 11
1.9817991230000001
 21
7.0731560584000004
 31
0.0
 12
1.9640184819999991
 22
7.0541863771999989
 32
0.0
 13
1.9640184819999991
 23
7.0541863771999989
 33
0.0
  0
LINE
  5
200
  8
0
  6
CONTINUOUS
 62
     7
 10
2.0298178461999981
 20
7.0103292949
 30
0.0
 11
1.6018394024
 21
7.4114815841999988
 31
0.0
  0
LINE
  5
201
  8
0
  6
CONTINUOUS
 62
     7
 10
1.6018394024
 20
7.4114815841999988
 30
0.0
 11
1.501839402399999
 21
7.4114815841999988
 31
0.0
  0
INSERT
  5
202
  8
0
  2
*U7
 10
0.0
 20
0.0
 30
0.0
  0
ENDBLK
  5
203
  8
0
  0
BLOCK
  8
0
  2
*U7
 70
     1
 10
0.0
 20
0.0
 30
0.0
  3
*U7
  1

  0
TEXT
  5
386
  8
0
 62
     7
 10
1.1622560553000001
 20
7.3610133576000001
 30
0.0
 40
0.1
  1
R.885
 41
0.75
  7
SLDTEXTSTYLE2
  0
ENDBLK
  5
388
  8
0
  0
BLOCK
  8
0
  2
_D_3
 70
     0
 10
0.0
 20
0.0
 30
0.0
  3
_D_3
  1

  0
SOLID
  5
206
  8
0
  6
CONTINUOUS
 62
     7
 10
3.5899925375999979
 20
3.0116287082999991
 30
0.0
 11
3.6679925375999991
 21
2.9986287082999992
 31
0.0
 12
3.6679925375999991
 22
3.0246287082999981
 32
0.0
 13
3.6679925375999991
 23
3.0246287082999981
 33
0.0
  0
SOLID
  5
207
  8
0
  6
CONTINUOUS
 62
     7
 10
5.4649925375999979
 20
3.0116287082999991
 30
0.0
 11
5.3869925376000003
 21
3.0246287082999981
 31
0.0
 12
5.3869925376000003
 22
2.9986287082999992
 32
0.0
 13
5.3869925376000003
 23
2.9986287082999992
 33
0.0
  0
LINE
  5
208
  8
0
  6
CONTINUOUS
 62
     7
 10
3.5899925375999979
 20
3.2496619515999989
 30
0.0
 11
3.5899925375999979
 21
2.9616287082999979
 31
0.0
  0
LINE
  5
209
  8
0
  6
CONTINUOUS
 62
     7
 10
5.4649925375999979
 20
3.2496619515999989
 30
0.0
 11
5.4649925375999979
 21
2.9616287082999979
 31
0.0
  0
LINE
  5
20A
  8
0
  6
CONTINUOUS
 62
     7
 10
3.5899925375999979
 20
3.0116287082999991
 30
0.0
 11
4.3612425298000002
 21
3.0116287082999991
 31
0.0
  0
LINE
  5
20B
  8
0
  6
CONTINUOUS
 62
     7
 10
5.4649925375999979
 20
3.0116287082999991
 30
0.0
 11
4.6937425454000001
 21
3.0116287082999991
 31
0.0
  0
INSERT
  5
20C
  8
0
  2
*U9
 10
0.0
 20
0.0
 30
0.0
  0
ENDBLK
  5
20D
  8
0
  0
BLOCK
  8
0
  2
*U9
 70
     1
 10
0.0
 20
0.0
 30
0.0
  3
*U9
  1

  0
TEXT
  5
38A
  8
0
 62
     7
 10
4.3612425298000002
 20
2.9611604816999981
 30
0.0
 40
0.1
  1
7.500
 41
0.75
  7
SLDTEXTSTYLE2
  0
ENDBLK
  5
38C
  8
0
  0
BLOCK
  8
0
  2
_D_4
 70
     0
 10
0.0
 20
0.0
 30
0.0
  3
_D_4
  1

  0
SOLID
  5
210
  8
0
  6
CONTINUOUS
 62
     7
 10
2.0443816102999981
 20
2.8165720914999981
 30
0.0
 11
2.1223816103000002
 21
2.8035720914999991
 31
0.0
 12
2.1223816103000002
 22
2.829572091499998
 32
0.0
 13
2.1223816103000002
 23
2.829572091499998
 33
0.0
  0
SOLID
  5
211
  8
0
  6
CONTINUOUS
 62
     7
 10
7.0106034647999991
 20
2.8165720914999981
 30
0.0
 11
6.9326034647999988
 21
2.829572091499998
 31
0.0
 12
6.9326034647999988
 22
2.8035720914999991
 32
0.0
 13
6.9326034647999988
 23
2.8035720914999991
 33
0.0
  0
LINE
  5
212
  8
0
  6
CONTINUOUS
 62
     7
 10
2.0443816102999981
 20
4.1727728789
 30
0.0
 11
2.0443816102999981
 21
2.7665720914999992
 31
0.0
  0
LINE
  5
213
  8
0
  6
CONTINUOUS
 62
     7
 10
7.0106034647999991
 20
4.1727728789
 30
0.0
 11
7.0106034647999991
 21
2.7665720914999992
 31
0.0
  0
LINE
  5
214
  8
0
  6
CONTINUOUS
 62
     7
 10
2.0443816102999981
 20
2.8165720914999981
 30
0.0
 11
4.3242980815000003
 21
2.8165720914999981
 31
0.0
  0
LINE
  5
215
  8
0
  6
CONTINUOUS
 62
     7
 10
7.0106034647999991
 20
2.8165720914999981
 30
0.0
 11
4.7306869936
 21
2.8165720914999981
 31
0.0
  0
INSERT
  5
216
  8
0
  2
*U11
 10
0.0
 20
0.0
 30
0.0
  0
ENDBLK
  5
217
  8
0
  0
BLOCK
  8
0
  2
*U11
 70
     1
 10
0.0
 20
0.0
 30
0.0
  3
*U11
  1

  0
TEXT
  5
38E
  8
0
 62
     7
 10
4.3242980815000003
 20
2.766103864899998
 30
0.0
 40
0.1
  1
19.865
 41
0.75
  7
SLDTEXTSTYLE2
  0
ENDBLK
  5
390
  8
0
  0
BLOCK
  8
0
  2
_D_5
 70
     0
 10
0.0
 20
0.0
 30
0.0
  3
_D_5
  1

  0
SOLID
  5
21A
  8
0
  6
CONTINUOUS
 62
     7
 10
7.4786933250000001
 20
4.2077728789000002
 30
0.0
 11
7.4916933249999982
 21
4.2857728788999987
 31
0.0
 12
7.4656933250000002
 22
4.2857728788999987
 32
0.0
 13
7.4656933250000002
 23
4.2857728788999987
 33
0.0
  0
SOLID
  5
21B
  8
0
  6
CONTINUOUS
 62
     7
 10
7.4786933250000001
 20
6.0827728789000002
 30
0.0
 11
7.4656933250000002
 21
6.004772878899999
 31
0.0
 12
7.4916933249999982
 22
6.004772878899999
 32
0.0
 13
7.4916933249999982
 23
6.004772878899999
 33
0.0
  0
LINE
  5
21C
  8
0
  6
CONTINUOUS
 62
     7
 10
7.0456034648000001
 20
4.2077728789000002
 30
0.0
 11
7.5286933249999981
 21
4.2077728789000002
 31
0.0
  0
LINE
  5
21D
  8
0
  6
CONTINUOUS
 62
     7
 10
7.0456034648000001
 20
6.0827728789000002
 30
0.0
 11
7.5286933249999981
 21
6.0827728789000002
 31
0.0
  0
LINE
  5
21E
  8
0
  6
CONTINUOUS
 62
     7
 10
7.4786933250000001
 20
4.2077728789000002
 30
0.0
 11
7.4786933250000001
 21
5.0658978782999986
 31
0.0
  0
LINE
  5
21F
  8
0
  6
CONTINUOUS
 62
     7
 10
7.4786933250000001
 20
6.0827728789000002
 30
0.0
 11
7.4786933250000001
 21
5.2246478793999991
 31
0.0
  0
INSERT
  5
220
  8
0
  2
*U13
 10
0.0
 20
0.0
 30
0.0
  0
ENDBLK
  5
221
  8
0
  0
BLOCK
  8
0
  2
*U13
 70
     1
 10
0.0
 20
0.0
 30
0.0
  3
*U13
  1

  0
TEXT
  5
392
  8
0
 62
     7
 10
7.3124433171999978
 20
5.0948046522999988
 30
0.0
 40
0.1
  1
7.500
 41
0.75
  7
SLDTEXTSTYLE2
  0
ENDBLK
  5
394
  8
0
  0
BLOCK
  8
0
  2
_D_6
 70
     0
 10
0.0
 20
0.0
 30
0.0
  3
_D_6
  1

  0
SOLID
  5
224
  8
0
  6
CONTINUOUS
 62
     7
 10
7.9511342697999989
 20
7.0058838060999991
 30
0.0
 11
7.938134269799999
 21
6.9278838060999988
 31
0.0
 12
7.9641342697999979
 22
6.9278838060999988
 32
0.0
 13
7.9641342697999979
 23
6.9278838060999988
 33
0.0
  0
SOLID
  5
225
  8
0
  6
CONTINUOUS
 62
     7
 10
7.9511342697999989
 20
3.2846619516
 30
0.0
 11
7.9641342697999979
 21
3.3626619515999989
 31
0.0
 12
7.938134269799999
 22
3.3626619515999989
 32
0.0
 13
7.938134269799999
 23
3.3626619515999989
 33
0.0
  0
LINE
  5
226
  8
0
  6
CONTINUOUS
 62
     7
 10
5.4999925375999981
 20
7.0058838060999991
 30
0.0
 11
8.0011342697999979
 21
7.0058838060999991
 31
0.0
  0
LINE
  5
227
  8
0
  6
CONTINUOUS
 62
     7
 10
5.4999925375999981
 20
3.2846619516
 30
0.0
 11
8.0011342697999979
 21
3.2846619516
 31
0.0
  0
LINE
  5
228
  8
0
  6
CONTINUOUS
 62
     7
 10
7.9511342697999989
 20
7.0058838060999991
 30
0.0
 11
7.9511342697999989
 21
5.2246478793999991
 31
0.0
  0
LINE
  5
229
  8
0
  6
CONTINUOUS
 62
     7
 10
7.9511342697999989
 20
3.2846619516
 30
0.0
 11
7.9511342697999989
 21
5.0658978782999986
 31
0.0
  0
INSERT
  5
22A
  8
0
  2
*U15
 10
0.0
 20
0.0
 30
0.0
  0
ENDBLK
  5
22B
  8
0
  0
BLOCK
  8
0
  2
*U15
 70
     1
 10
0.0
 20
0.0
 30
0.0
  3
*U15
  1

  0
TEXT
  5
396
  8
0
 62
     7
 10
7.7479398137999977
 20
5.0948046522999988
 30
0.0
 40
0.1
  1
14.885
 41
0.75
  7
SLDTEXTSTYLE2
  0
ENDBLK
  5
398
  8
0
  0
BLOCK
  8
0
  2
*D16
 70
     1
 10
0.0
 20
0.0
 30
0.0
  3
*D16
  1

  0
LINE
  5
2CB
  8
0
  6
CONTINUOUS
 62
     0
 10
6.2606958287925458
 20
4.9961637878982748
 30
0.0
 11
6.2606958287925458
 21
5.5486145752982763
 31
0.0
  0
LINE
  5
2CC
  8
0
  6
CONTINUOUS
 62
     0
 10
1.1456958287925461
 20
4.9961637878982748
 30
0.0
 11
1.1456958287925461
 21
5.5486145752982763
 31
0.0
  0
LINE
  5
2CD
  8
0
  6
CONTINUOUS
 62
     0
 10
6.1826958287925473
 20
5.5486145752982763
 30
0.0
 11
3.9031958287925459
 21
5.5486145752982763
 31
0.0
  0
LINE
  5
2CE
  8
0
  6
CONTINUOUS
 62
     0
 10
1.223695828792547
 20
5.5486145752982763
 30
0.0
 11
3.503195828792546
 21
5.5486145752982763
 31
0.0
  0
SOLID
  5
2CF
  8
0
  6
CONTINUOUS
 62
     0
 10
6.1826958287925473
 20
5.5616145752982762
 30
0.0
 11
6.1826958287925473
 21
5.5356145752982764
 31
0.0
 12
6.2606958287925458
 22
5.5486145752982763
 32
0.0
 13
6.2606958287925458
 23
5.5486145752982763
 33
0.0
  0
SOLID
  5
2D0
  8
0
  6
CONTINUOUS
 62
     0
 10
1.223695828792547
 20
5.5616145752982762
 30
0.0
 11
1.223695828792547
 21
5.5356145752982764
 31
0.0
 12
1.1456958287925461
 22
5.5486145752982763
 32
0.0
 13
1.1456958287925461
 23
5.5486145752982763
 33
0.0
  0
INSERT
  5
2D1
  8
0
  2
*U17
 10
0.0
 20
0.0
 30
0.0
  0
POINT
  5
2D2
  8
DEFPOINTS
  6
CONTINUOUS
 62
     0
 10
6.2606958287925458
 20
4.9336637878982748
 30
0.0
  0
POINT
  5
2D3
  8
DEFPOINTS
  6
CONTINUOUS
 62
     0
 10
1.1456958287925461
 20
4.9336637878982748
 30
0.0
  0
POINT
  5
2D4
  8
DEFPOINTS
  6
CONTINUOUS
 62
     0
 10
1.1456958287925461
 20
5.5486145752982763
 30
0.0
  0
ENDBLK
  5
276
  8
0
  0
BLOCK
  8
0
  2
*U17
 70
     1
 10
0.0
 20
0.0
 30
0.0
  3
*U17
  1

  0
TEXT
  5
39A
  8
0
 62
     0
 10
3.5281958287925459
 20
5.4986145752982747
 30
0.0
 40
0.1
  1
20.460
 41
0.75
  7
SLDTEXTSTYLE2
  0
ENDBLK
  5
39C
  8
0
  0
BLOCK
  8
0
  2
*D18
 70
     1
 10
0.0
 20
0.0
 30
0.0
  3
*D18
  1

  0
LINE
  5
2D5
  8
0
  6
CONTINUOUS
 62
     0
 10
1.304445828792546
 20
5.154913787898276
 30
0.0
 11
0.7519950413925489
 21
5.154913787898276
 31
0.0
  0
LINE
  5
2D6
  8
0
  6
CONTINUOUS
 62
     0
 10
1.304445828792546
 20
1.284913787898275
 30
0.0
 11
0.751995041392548
 21
1.284913787898275
 31
0.0
  0
LINE
  5
2D7
  8
0
  6
CONTINUOUS
 62
     0
 10
0.7519950413925489
 20
5.0769137878982731
 30
0.0
 11
0.7519950413925484
 21
3.2949137878982762
 31
0.0
  0
LINE
  5
2D8
  8
0
  6
CONTINUOUS
 62
     0
 10
0.751995041392548
 20
1.3629137878982751
 30
0.0
 11
0.7519950413925483
 21
3.1449137878982749
 31
0.0
  0
SOLID
  5
2D9
  8
0
  6
CONTINUOUS
 62
     0
 10
0.7389950413925487
 20
5.0769137878982731
 30
0.0
 11
0.7649950413925489
 21
5.0769137878982731
 31
0.0
 12
0.7519950413925489
 22
5.154913787898276
 32
0.0
 13
0.7519950413925489
 23
5.154913787898276
 33
0.0
  0
SOLID
  5
2DA
  8
0
  6
CONTINUOUS
 62
     0
 10
0.738995041392548
 20
1.3629137878982751
 30
0.0
 11
0.764995041392548
 21
1.3629137878982751
 31
0.0
 12
0.751995041392548
 22
1.284913787898275
 32
0.0
 13
0.751995041392548
 23
1.284913787898275
 33
0.0
  0
INSERT
  5
2DB
  8
0
  2
*U19
 10
0.0
 20
0.0
 30
0.0
  0
POINT
  5
2DC
  8
DEFPOINTS
  6
CONTINUOUS
 62
     0
 10
1.366945828792546
 20
5.154913787898276
 30
0.0
  0
POINT
  5
2DD
  8
DEFPOINTS
  6
CONTINUOUS
 62
     0
 10
1.366945828792546
 20
1.284913787898275
 30
0.0
  0
POINT
  5
2DE
  8
DEFPOINTS
  6
CONTINUOUS
 62
     0
 10
0.751995041392548
 20
1.284913787898275
 30
0.0
  0
ENDBLK
  5
283
  8
0
  0
BLOCK
  8
0
  2
*U19
 70
     1
 10
0.0
 20
0.0
 30
0.0
  3
*U19
  1

  0
TEXT
  5
39E
  8
0
 62
     0
 10
0.5832450413925479
 20
3.1699137878982762
 30
0.0
 40
0.1
  1
15.480
 41
0.75
  7
SLDTEXTSTYLE2
  0
ENDBLK
  5
3A0
  8
0
  0
BLOCK
  8
0
  2
*D20
 70
     1
 10
0.0
 20
0.0
 30
0.0
  3
*D20
  1

  0
LINE
  5
2DF
  8
0
  6
CONTINUOUS
 62
     0
 10
0.6827510199925482
 20
5.4861224931982751
 30
0.0
 11
0.7775426932751751
 21
5.4861224931982751
 31
0.0
  0
LINE
  5
2E0
  8
0
  6
CONTINUOUS
 62
     0
 10
0.7775426932751751
 20
5.4861224931982751
 30
0.0
 11
1.1486120936542541
 21
5.1383121268181799
 31
0.0
  0
INSERT
  5
2E1
  8
0
  2
*U21
 10
0.0
 20
0.0
 30
0.0
  0
SOLID
  5
2E2
  8
0
  6
CONTINUOUS
 62
     0
 10
1.157502414140904
 20
5.1477969674412281
 30
0.0
 11
1.139721773167603
 21
5.128827286195131
 31
0.0
 12
1.205521137392547
 22
5.0849702038982763
 32
0.0
 13
1.205521137392547
 23
5.0849702038982763
 33
0.0
  0
POINT
  5
2E3
  8
DEFPOINTS
  6
CONTINUOUS
 62
     0
 10
1.205521137392547
 20
5.0849702038982763
 30
0.0
  0
POINT
  5
2E4
  8
DEFPOINTS
  6
CONTINUOUS
 62
     0
 10
1.3669458287925469
 20
4.9336637878982739
 30
0.0
  0
ENDBLK
  5
290
  8
0
  0
BLOCK
  8
0
  2
*U21
 70
     1
 10
0.0
 20
0.0
 30
0.0
  3
*U21
  1

  0
TEXT
  5
3A2
  8
0
 62
     0
 10
0.3577510199925471
 20
5.4361224931982752
 30
0.0
 40
0.1
  1
R.885
 41
0.75
  7
SLDTEXTSTYLE2
  0
ENDBLK
  5
3A4
  8
0
  0
BLOCK
  8
0
  2
*D22
 70
     1
 10
0.0
 20
0.0
 30
0.0
  3
*D22
  1

  0
LINE
  5
2E5
  8
0
  6
CONTINUOUS
 62
     0
 10
2.7656958287925471
 20
1.2968028605982751
 30
0.0
 11
2.7656958287925471
 21
1.0862696172982751
 31
0.0
  0
LINE
  5
2E6
  8
0
  6
CONTINUOUS
 62
     0
 10
4.6406958287925457
 20
1.2968028605982751
 30
0.0
 11
4.6406958287925457
 21
1.0862696172982751
 31
0.0
  0
LINE
  5
2E7
  8
0
  6
CONTINUOUS
 62
     0
 10
2.843695828792546
 20
1.0862696172982751
 30
0.0
 11
3.5406958287925461
 21
1.0862696172982751
 31
0.0
  0
LINE
  5
2E8
  8
0
  6
CONTINUOUS
 62
     0
 10
4.5626958287925472
 20
1.0862696172982751
 30
0.0
 11
3.8656958287925471
 21
1.0862696172982751
 31
0.0
  0
SOLID
  5
2E9
  8
0
  6
CONTINUOUS
 62
     0
 10
2.843695828792546
 20
1.0992696172982761
 30
0.0
 11
2.843695828792546
 21
1.0732696172982761
 31
0.0
 12
2.7656958287925471
 22
1.0862696172982751
 32
0.0
 13
2.7656958287925471
 23
1.0862696172982751
 33
0.0
  0
SOLID
  5
2EA
  8
0
  6
CONTINUOUS
 62
     0
 10
4.5626958287925472
 20
1.0992696172982761
 30
0.0
 11
4.5626958287925472
 21
1.0732696172982761
 31
0.0
 12
4.6406958287925457
 22
1.0862696172982751
 32
0.0
 13
4.6406958287925457
 23
1.0862696172982751
 33
0.0
  0
INSERT
  5
2EB
  8
0
  2
*U23
 10
0.0
 20
0.0
 30
0.0
  0
POINT
  5
2EC
  8
DEFPOINTS
  6
CONTINUOUS
 62
     0
 10
2.7656958287925471
 20
1.3593028605982751
 30
0.0
  0
POINT
  5
2ED
  8
DEFPOINTS
  6
CONTINUOUS
 62
     0
 10
4.6406958287925457
 20
1.3593028605982751
 30
0.0
  0
POINT
  5
2EE
  8
DEFPOINTS
  6
CONTINUOUS
 62
     0
 10
4.6406958287925457
 20
1.0862696172982751
 30
0.0
  0
ENDBLK
  5
299
  8
0
  0
BLOCK
  8
0
  2
*U23
 70
     1
 10
0.0
 20
0.0
 30
0.0
  3
*U23
  1

  0
TEXT
  5
3A6
  8
0
 62
     0
 10
3.565695828792546
 20
1.036269617298275
 30
0.0
 40
0.1
  1
7.500
 41
0.75
  7
SLDTEXTSTYLE2
  0
ENDBLK
  5
3A8
  8
0
  0
BLOCK
  8
0
  2
*D24
 70
     1
 10
0.0
 20
0.0
 30
0.0
  3
*D24
  1

  0
LINE
  5
2EF
  8
0
  6
CONTINUOUS
 62
     0
 10
1.220084901492547
 20
2.2199137878982751
 30
0.0
 11
1.220084901492547
 21
0.8912130004982758
 31
0.0
  0
LINE
  5
2F0
  8
0
  6
CONTINUOUS
 62
     0
 10
6.1863067559925451
 20
2.2199137878982751
 30
0.0
 11
6.1863067559925451
 21
0.8912130004982758
 31
0.0
  0
LINE
  5
2F1
  8
0
  6
CONTINUOUS
 62
     0
 10
1.2980849014925471
 20
0.8912130004982758
 30
0.0
 11
3.503195828792546
 21
0.8912130004982758
 31
0.0
  0
LINE
  5
2F2
  8
0
  6
CONTINUOUS
 62
     0
 10
6.1083067559925457
 20
0.8912130004982758
 30
0.0
 11
3.9031958287925459
 21
0.8912130004982758
 31
0.0
  0
SOLID
  5
2F3
  8
0
  6
CONTINUOUS
 62
     0
 10
1.2980849014925471
 20
0.9042130004982759
 30
0.0
 11
1.2980849014925471
 21
0.8782130004982761
 31
0.0
 12
1.220084901492547
 22
0.8912130004982758
 32
0.0
 13
1.220084901492547
 23
0.8912130004982758
 33
0.0
  0
SOLID
  5
2F4
  8
0
  6
CONTINUOUS
 62
     0
 10
6.1083067559925457
 20
0.9042130004982759
 30
0.0
 11
6.1083067559925457
 21
0.8782130004982761
 31
0.0
 12
6.1863067559925451
 22
0.8912130004982758
 32
0.0
 13
6.1863067559925451
 23
0.8912130004982758
 33
0.0
  0
INSERT
  5
2F5
  8
0
  2
*U25
 10
0.0
 20
0.0
 30
0.0
  0
POINT
  5
2F6
  8
DEFPOINTS
  6
CONTINUOUS
 62
     0
 10
1.220084901492547
 20
2.2824137878982751
 30
0.0
  0
POINT
  5
2F7
  8
DEFPOINTS
  6
CONTINUOUS
 62
     0
 10
6.1863067559925451
 20
2.2824137878982751
 30
0.0
  0
POINT
  5
2F8
  8
DEFPOINTS
  6
CONTINUOUS
 62
     0
 10
6.1863067559925451
 20
0.8912130004982758
 30
0.0
  0
ENDBLK
  5
2A6
  8
0
  0
BLOCK
  8
0
  2
*U25
 70
     1
 10
0.0
 20
0.0
 30
0.0
  3
*U25
  1

  0
TEXT
  5
3AA
  8
0
 62
     0
 10
3.5281958287925459
 20
0.8412130004982762
 30
0.0
 40
0.1
  1
19.865
 41
0.75
  7
SLDTEXTSTYLE2
  0
ENDBLK
  5
3AC
  8
0
  0
BLOCK
  8
0
  2
*D26
 70
     1
 10
0.0
 20
0.0
 30
0.0
  3
*D26
  1

  0
LINE
  5
2F9
  8
0
  6
CONTINUOUS
 62
     0
 10
6.2488067559925451
 20
2.2824137878982751
 30
0.0
 11
6.654396616192547
 21
2.2824137878982751
 31
0.0
  0
LINE
  5
2FA
  8
0
  6
CONTINUOUS
 62
     0
 10
6.2488067559925451
 20
4.1574137878982764
 30
0.0
 11
6.654396616192547
 21
4.1574137878982764
 31
0.0
  0
LINE
  5
2FB
  8
0
  6
CONTINUOUS
 62
     0
 10
6.654396616192547
 20
2.3604137878982749
 30
0.0
 11
6.654396616192547
 21
3.144913787898274
 31
0.0
  0
LINE
  5
2FC
  8
0
  6
CONTINUOUS
 62
     0
 10
6.654396616192547
 20
4.0794137878982761
 30
0.0
 11
6.654396616192547
 21
3.2949137878982739
 31
0.0
  0
SOLID
  5
2FD
  8
0
  6
CONTINUOUS
 62
     0
 10
6.6413966161925471
 20
2.3604137878982749
 30
0.0
 11
6.6673966161925469
 21
2.3604137878982749
 31
0.0
 12
6.654396616192547
 22
2.2824137878982751
 32
0.0
 13
6.654396616192547
 23
2.2824137878982751
 33
0.0
  0
SOLID
  5
2FE
  8
0
  6
CONTINUOUS
 62
     0
 10
6.6413966161925471
 20
4.0794137878982761
 30
0.0
 11
6.6673966161925469
 21
4.0794137878982761
 31
0.0
 12
6.654396616192547
 22
4.1574137878982764
 32
0.0
 13
6.654396616192547
 23
4.1574137878982764
 33
0.0
  0
INSERT
  5
2FF
  8
0
  2
*U27
 10
0.0
 20
0.0
 30
0.0
  0
POINT
  5
300
  8
DEFPOINTS
  6
CONTINUOUS
 62
     0
 10
6.1863067559925451
 20
2.2824137878982751
 30
0.0
  0
POINT
  5
301
  8
DEFPOINTS
  6
CONTINUOUS
 62
     0
 10
6.1863067559925451
 20
4.1574137878982764
 30
0.0
  0
POINT
  5
302
  8
DEFPOINTS
  6
CONTINUOUS
 62
     0
 10
6.654396616192547
 20
4.1574137878982764
 30
0.0
  0
ENDBLK
  5
2B3
  8
0
  0
BLOCK
  8
0
  2
*U27
 70
     1
 10
0.0
 20
0.0
 30
0.0
  3
*U27
  1

  0
TEXT
  5
3AE
  8
0
 62
     0
 10
6.5168966161925459
 20
3.1699137878982762
 30
0.0
 40
0.1
  1
7.500
 41
0.75
  7
SLDTEXTSTYLE2
  0
ENDBLK
  5
3B0
  8
0
  0
BLOCK
  8
0
  2
*D28
 70
     1
 10
0.0
 20
0.0
 30
0.0
  3
*D28
  1

  0
LINE
  5
303
  8
0
  6
CONTINUOUS
 62
     0
 10
4.7031958287925457
 20
5.0805247150982762
 30
0.0
 11
7.1268375609925467
 21
5.0805247150982753
 31
0.0
  0
LINE
  5
304
  8
0
  6
CONTINUOUS
 62
     0
 10
4.7031958287925457
 20
1.3593028605982751
 30
0.0
 11
7.1268375609925458
 21
1.3593028605982751
 31
0.0
  0
LINE
  5
305
  8
0
  6
CONTINUOUS
 62
     0
 10
7.1268375609925467
 20
5.002524715098275
 30
0.0
 11
7.1268375609925467
 21
3.2949137878982739
 31
0.0
  0
LINE
  5
306
  8
0
  6
CONTINUOUS
 62
     0
 10
7.1268375609925458
 20
1.4373028605982761
 30
0.0
 11
7.1268375609925467
 21
3.144913787898274
 31
0.0
  0
SOLID
  5
307
  8
0
  6
CONTINUOUS
 62
     0
 10
7.1138375609925468
 20
5.002524715098275
 30
0.0
 11
7.1398375609925484
 21
5.002524715098275
 31
0.0
 12
7.1268375609925467
 22
5.0805247150982753
 32
0.0
 13
7.1268375609925467
 23
5.0805247150982753
 33
0.0
  0
SOLID
  5
308
  8
0
  6
CONTINUOUS
 62
     0
 10
7.1138375609925459
 20
1.4373028605982761
 30
0.0
 11
7.1398375609925457
 21
1.4373028605982761
 31
0.0
 12
7.1268375609925458
 22
1.3593028605982751
 32
0.0
 13
7.1268375609925458
 23
1.3593028605982751
 33
0.0
  0
INSERT
  5
309
  8
0
  2
*U29
 10
0.0
 20
0.0
 30
0.0
  0
POINT
  5
30A
  8
DEFPOINTS
  6
CONTINUOUS
 62
     0
 10
4.6406958287925457
 20
5.0805247150982762
 30
0.0
  0
POINT
  5
30B
  8
DEFPOINTS
  6
CONTINUOUS
 62
     0
 10
4.6406958287925457
 20
1.3593028605982751
 30
0.0
  0
POINT
  5
30C
  8
DEFPOINTS
  6
CONTINUOUS
 62
     0
 10
7.1268375609925458
 20
1.3593028605982751
 30
0.0
  0
ENDBLK
  5
2C0
  8
0
  0
BLOCK
  8
0
  2
*U29
 70
     1
 10
0.0
 20
0.0
 30
0.0
  3
*U29
  1

  0
TEXT
  5
3B2
  8
0
 62
     0
 10
6.951837560992546
 20
3.1699137878982762
 30
0.0
 40
0.1
  1
14.885
 41
0.75
  7
SLDTEXTSTYLE2
  0
ENDBLK
  5
3B4
  8
0
  0
BLOCK
  8
0
  2
*D30
 70
     1
 10
0.0
 20
0.0
 30
0.0
  3
*D30
  1

  0
LINE
  5
324
  8
0
 62
     0
 10
7.9032924804164839
 20
11.31826106425342
 30
0.0
 11
7.7232924804164851
 21
11.31826106425342
 31
0.0
  0
LINE
  5
325
  8
0
 62
     0
 10
7.7232924804164851
 20
11.31826106425342
 30
0.0
 11
7.6664270311087579
 21
10.9360937413899
 31
0.0
  0
INSERT
  5
326
  8
0
  2
*U31
 10
0.0
 20
0.0
 30
0.0
  0
SOLID
  5
327
  8
0
 62
     0
 10
7.6367537254511291
 20
10.940509047874039
 30
0.0
 11
7.6961003367663867
 21
10.931678434905759
 31
0.0
 12
7.6399351922039029
 22
10.758053907444131
 32
0.0
 13
7.6399351922039029
 23
10.758053907444131
 33
0.0
  0
LINE
  5
328
  8
0
 62
     0
 10
7.5356958287925453
 20
10.66235749669827
 30
0.0
 11
7.7156958287925441
 21
10.66235749669827
 31
0.0
  0
LINE
  5
329
  8
0
 62
     0
 10
7.6256958287925443
 20
10.57235749669827
 30
0.0
 11
7.6256958287925443
 21
10.75235749669827
 31
0.0
  0
POINT
  5
32A
  8
DEFPOINTS
 62
     0
 10
7.6399351922039029
 20
10.758053907444131
 30
0.0
  0
POINT
  5
32B
  8
DEFPOINTS
 62
     0
 10
7.6114564653811829
 20
10.566661085952409
 30
0.0
  0
ENDBLK
  5
31A
  8
0
  0
BLOCK
  8
0
  2
*U31
 70
     1
 10
0.0
 20
0.0
 30
0.0
  3
*U31
  1

  0
TEXT
  5
3B9
  8
0
 62
     0
 10
7.9831014845092572
 20
11.2318831652084
 30
0.0
 40
0.18
  1
Ø0.1935
  0
ENDBLK
  5
3BB
  8
0
  0
ENDSEC
  0
SECTION
  2
ENTITIES
  0
CIRCLE
  5
255
  8
0
  6
CONTINUOUS
 62
     7
 10
0.6610033246418064
 20
11.862941085251011
 30
0.0
 40
0.09675
  0
CIRCLE
  5
257
  8
0
  6
CONTINUOUS
 62
     7
 10
14.343447033841811
 20
15.55538479405101
 30
0.0
 40
0.0967500000000036
  0
CIRCLE
  5
259
  8
0
  6
CONTINUOUS
 62
     7
 10
6.8434470338418052
 20
15.55538479405101
 30
0.0
 40
0.0967500000000036
  0
CIRCLE
  5
267
  8
0
  6
CONTINUOUS
 62
     7
 10
6.8434470338418052
 20
0.6704973760510218
 30
0.0
 40
0.09675
  0
CIRCLE
  5
268
  8
0
  6
CONTINUOUS
 62
     7
 10
20.52589074264181
 20
4.3629410852510198
 30
0.0
 40
0.0967499999999964
  0
CIRCLE
  5
269
  8
0
  6
CONTINUOUS
 62
     7
 10
20.52589074264181
 20
11.862941085251011
 30
0.0
 40
0.0967499999999964
  0
CIRCLE
  5
26A
  8
0
  6
CONTINUOUS
 62
     7
 10
14.343447033841811
 20
0.6704973760510218
 30
0.0
 40
0.09675
  0
CIRCLE
  5
26B
  8
0
  6
CONTINUOUS
 62
     7
 10
0.6610033246418064
 20
4.3629410852510198
 30
0.0
 40
0.09675
  0
POLYLINE
  5
494
  8
0
 66
     1
 10
0.0
 20
0.0
 30
0.0
 70
     1
  0
VERTEX
  5
4E7
  8
0
 10
20.812197033641809
 20
14.96794108525102
 30
0.0
 42
0.4142135623730944
  0
VERTEX
  5
4E8
  8
0
 10
19.948447033641798
 20
15.83169108525102
 30
0.0
  0
VERTEX
  5
4E9
  8
0
 10
1.238447033641803
 20
15.83169108525102
 30
0.0
 42
0.4142135623730974
  0
VERTEX
  5
4EA
  8
0
 10
0.3746970336417932
 20
14.96794108525102
 30
0.0
  0
VERTEX
  5
4EB
  8
0
 10
0.3746970336418074
 20
1.257941085251018
 30
0.0
 42
0.4142135623730958
  0
VERTEX
  5
4EC
  8
0
 10
1.238447033641803
 20
0.3941910852510209
 30
0.0
  0
VERTEX
  5
4ED
  8
0
 10
19.948447033641798
 20
0.3941910852510189
 30
0.0
 42
0.4142135623730951
  0
VERTEX
  5
4EE
  8
0
 10
20.812197033641809
 20
1.2579410852510171
 30
0.0
  0
SEQEND
  5
4EF
  8
0
  0
ENDSEC
  0
EOF
