  0
SECTION
  2
HEADER
  9
$ACADVER
  1
AC1009
  9
$INSBASE
 10
0.0
 20
0.0
 30
0.0
  9
$EXTMIN
 10
0.6126904414001172
 20
0.369470569427568
 30
0.0
  9
$EXTMAX
 10
46.137530870068147
 20
15.21783789254315
 30
0.0
  9
$LIMMIN
 10
0.0
 20
0.0
  9
$LIMMAX
 10
12.0
 20
9.0
  9
$ORTHOMODE
 70
     1
  9
$REGENMODE
 70
     1
  9
$FILLMODE
 70
     1
  9
$QTEXTMODE
 70
     0
  9
$MIRRTEXT
 70
     0
  9
$DRAGMODE
 70
     2
  9
$LTSCALE
 40
1.0
  9
$OSMODE
 70
  2087
  9
$ATTMODE
 70
     1
  9
$TEXTSIZE
 40
0.2
  9
$TRACEWID
 40
0.05
  9
$TEXTSTYLE
  7
STANDARD
  9
$CLAYER
  8
0
  9
$CELTYPE
  6
BYLAYER
  9
$CECOLOR
 62
   256
  9
$DIMSCALE
 40
1.0
  9
$DIMASZ
 40
0.18
  9
$DIMEXO
 40
0.0625
  9
$DIMDLI
 40
0.38
  9
$DIMRND
 40
0.0
  9
$DIMDLE
 40
0.0
  9
$DIMEXE
 40
0.18
  9
$DIMTP
 40
0.0
  9
$DIMTM
 40
0.0
  9
$DIMTXT
 40
0.18
  9
$DIMCEN
 40
0.09
  9
$DIMTSZ
 40
0.0
  9
$DIMTOL
 70
     0
  9
$DIMLIM
 70
     0
  9
$DIMTIH
 70
     1
  9
$DIMTOH
 70
     1
  9
$DIMSE1
 70
     0
  9
$DIMSE2
 70
     0
  9
$DIMTAD
 70
     0
  9
$DIMZIN
 70
     0
  9
$DIMBLK
  1

  9
$DIMASO
 70
     1
  9
$DIMSHO
 70
     1
  9
$DIMPOST
  1

  9
$DIMAPOST
  1

  9
$DIMALT
 70
     0
  9
$DIMALTD
 70
     2
  9
$DIMALTF
 40
25.399999999999999
  9
$DIMLFAC
 40
1.0
  9
$DIMTOFL
 70
     0
  9
$DIMTVP
 40
0.0
  9
$DIMTIX
 70
     0
  9
$DIMSOXD
 70
     0
  9
$DIMSAH
 70
     0
  9
$DIMBLK1
  1

  9
$DIMBLK2
  1

  9
$DIMSTYLE
  2
STANDARD
  9
$DIMCLRD
 70
     0
  9
$DIMCLRE
 70
     0
  9
$DIMCLRT
 70
     0
  9
$DIMTFAC
 40
1.0
  9
$DIMGAP
 40
0.09
  9
$LUNITS
 70
     2
  9
$LUPREC
 70
     4
  9
$SKETCHINC
 40
0.1
  9
$FILLETRAD
 40
0.9549999999999999
  9
$AUNITS
 70
     0
  9
$AUPREC
 70
     0
  9
$MENU
  1
.
  9
$ELEVATION
 40
0.0
  9
$PELEVATION
 40
0.0
  9
$THICKNESS
 40
0.0
  9
$LIMCHECK
 70
     0
  9
$BLIPMODE
 70
     0
  9
$CHAMFERA
 40
0.0
  9
$CHAMFERB
 40
0.0
  9
$SKPOLY
 70
     0
  9
$TDCREATE
 40
2459060.4872738188
  9
$TDUPDATE
 40
2459062.5728476858
  9
$TDINDWG
 40
0.0036053935
  9
$TDUSRTIMER
 40
0.0036053704
  9
$USRTIMER
 70
     1
  9
$ANGBASE
 50
0.0
  9
$ANGDIR
 70
     0
  9
$PDMODE
 70
     0
  9
$PDSIZE
 40
0.0
  9
$PLINEWID
 40
0.0
  9
$COORDS
 70
     1
  9
$SPLFRAME
 70
     0
  9
$SPLINETYPE
 70
     6
  9
$SPLINESEGS
 70
     8
  9
$ATTDIA
 70
     1
  9
$ATTREQ
 70
     1
  9
$HANDLING
 70
     1
  9
$HANDSEED
  5
5B9
  9
$SURFTAB1
 70
     6
  9
$SURFTAB2
 70
     6
  9
$SURFTYPE
 70
     6
  9
$SURFU
 70
     6
  9
$SURFV
 70
     6
  9
$UCSNAME
  2

  9
$UCSORG
 10
0.0
 20
0.0
 30
0.0
  9
$UCSXDIR
 10
1.0
 20
0.0
 30
0.0
  9
$UCSYDIR
 10
0.0
 20
1.0
 30
0.0
  9
$PUCSNAME
  2

  9
$PUCSORG
 10
0.0
 20
0.0
 30
0.0
  9
$PUCSXDIR
 10
1.0
 20
0.0
 30
0.0
  9
$PUCSYDIR
 10
0.0
 20
1.0
 30
0.0
  9
$USERI1
 70
     0
  9
$USERI2
 70
     0
  9
$USERI3
 70
     0
  9
$USERI4
 70
     0
  9
$USERI5
 70
     0
  9
$USERR1
 40
0.0
  9
$USERR2
 40
0.0
  9
$USERR3
 40
0.0
  9
$USERR4
 40
0.0
  9
$USERR5
 40
0.0
  9
$WORLDVIEW
 70
     1
  9
$SHADEDGE
 70
     3
  9
$SHADEDIF
 70
    70
  9
$TILEMODE
 70
     1
  9
$MAXACTVP
 70
    64
  9
$PLIMCHECK
 70
     0
  9
$PEXTMIN
 10
0.0
 20
0.0
 30
0.0
  9
$PEXTMAX
 10
0.0
 20
0.0
 30
0.0
  9
$PLIMMIN
 10
0.0
 20
0.0
  9
$PLIMMAX
 10
12.0
 20
9.0
  9
$UNITMODE
 70
     0
  9
$VISRETAIN
 70
     1
  9
$PLINEGEN
 70
     0
  9
$PSLTSCALE
 70
     1
  0
ENDSEC
  0
SECTION
  2
TABLES
  0
TABLE
  2
VPORT
 70
     1
  0
VPORT
  2
*ACTIVE
 70
     0
 10
0.0
 20
0.0
 11
1.0
 21
1.0
 12
7.494162011699764
 22
7.8750483872783192
 13
0.0
 23
0.0
 14
0.5
 24
0.5
 15
0.5
 25
0.5
 16
0.0
 26
0.0
 36
1.0
 17
0.0
 27
0.0
 37
0.0
 40
36.78490396759959
 41
2.2927120669056151
 42
50.0
 43
0.0
 44
0.0
 50
0.0
 51
0.0
 71
     0
 72
  1000
 73
     1
 74
     3
 75
     0
 76
     1
 77
     0
 78
     0
  0
ENDTAB
  0
TABLE
  2
LTYPE
 70
     2
  0
LTYPE
  2
CONTINUOUS
 70
     0
  3
Solid line
 72
    65
 73
     0
 40
0.0
  0
ENDTAB
  0
TABLE
  2
LAYER
 70
     2
  0
LAYER
  2
0
 70
     0
 62
     7
  6
CONTINUOUS
  0
LAYER
  2
DEFPOINTS
 70
     0
 62
     7
  6
CONTINUOUS
  0
ENDTAB
  0
TABLE
  2
STYLE
 70
     3
  0
STYLE
  2
STANDARD
 70
     0
 40
0.0
 41
1.0
 50
0.0
 71
     0
 42
0.2
  3
txt
  4

  0
STYLE
  2
ANNOTATIVE
 70
     0
 40
0.0
 41
1.0
 50
0.0
 71
     0
 42
0.2
  3
txt
  4

  0
STYLE
  2
SLDTEXTSTYLE2
 70
     0
 40
0.0
 41
0.75
 50
0.0
 71
     0
 42
0.1
  3
TXT
  4

  0
ENDTAB
  0
TABLE
  2
VIEW
 70
     0
  0
ENDTAB
  0
TABLE
  2
UCS
 70
     0
  0
ENDTAB
  0
TABLE
  2
APPID
 70
     9
  0
APPID
  2
ACAD
 70
     0
  0
APPID
  2
ACADANNOTATIVE
 70
     0
  0
APPID
  2
ACADANNOPO
 70
     0
  0
APPID
  2
ACAD_DSTYLE_DIMJAG
 70
     0
  0
APPID
  2
ACAD_DSTYLE_DIMTALN
 70
     0
  0
APPID
  2
ACAD_MLEADERVER
 70
     0
  0
APPID
  2
ACAD_NAV_VCDISPLAY
 70
     0
  0
APPID
  2
ACAD_EXEMPT_FROM_CAD_STANDARDS
 70
     0
  0
APPID
  2
ACAD_DSTYLE_DIMRADIAL_EXTENSION
 70
     0
  0
ENDTAB
  0
TABLE
  2
DIMSTYLE
 70
     6
  0
DIMSTYLE
  2
STANDARD
 70
     0
  3

  4

  5

  6

  7

 40
1.0
 41
0.18
 42
0.0625
 43
0.38
 44
0.18
 45
0.0
 46
0.0
 47
0.0
 48
0.0
140
0.18
141
0.09
142
0.0
143
25.399999999999999
144
1.0
145
0.0
146
1.0
147
0.09
 71
     0
 72
     0
 73
     1
 74
     1
 75
     0
 76
     0
 77
     0
 78
     0
170
     0
171
     2
172
     0
173
     0
174
     0
175
     0
176
     0
177
     0
178
     0
  0
DIMSTYLE
  2
ANNOTATIVE
 70
     0
  3

  4

  5

  6

  7

 40
0.0
 41
0.18
 42
0.0625
 43
0.38
 44
0.18
 45
0.0
 46
0.0
 47
0.0
 48
0.0
140
0.18
141
0.09
142
0.0
143
25.399999999999999
144
1.0
145
0.0
146
1.0
147
0.09
 71
     0
 72
     0
 73
     1
 74
     1
 75
     0
 76
     0
 77
     0
 78
     0
170
     0
171
     2
172
     0
173
     0
174
     0
175
     0
176
     0
177
     0
178
     0
  0
DIMSTYLE
  2
SLDDIMSTYLE0
 70
     0
  3

  4

  5

  6

  7

 40
1.0
 41
0.078
 42
0.0625
 43
0.38
 44
0.0
 45
0.000000001
 46
0.0
 47
0.0
 48
0.0
140
0.1
141
0.09
142
0.0
143
25.399999999999999
144
4.0
145
0.0
146
1.0
147
0.025
 71
     0
 72
     0
 73
     1
 74
     1
 75
     0
 76
     0
 77
     0
 78
     4
170
     0
171
     2
172
     0
173
     1
174
     0
175
     0
176
     0
177
     0
178
     0
  0
DIMSTYLE
  2
SLDDIMSTYLE1
 70
     0
  3

  4

  5

  6

  7

 40
1.0
 41
0.078
 42
0.0625
 43
0.38
 44
0.0
 45
0.000000001
 46
0.0
 47
0.0
 48
0.0
140
0.1
141
0.0
142
0.0
143
25.399999999999999
144
4.0
145
0.0
146
1.0
147
0.025
 71
     0
 72
     0
 73
     1
 74
     1
 75
     0
 76
     0
 77
     0
 78
    12
170
     0
171
     2
172
     0
173
     1
174
     0
175
     0
176
     0
177
     0
178
     0
  0
DIMSTYLE
  2
SLDDIMSTYLE2
 70
     0
  3

  4

  5

  6

  7

 40
1.0
 41
0.078
 42
0.0625
 43
0.38
 44
0.0
 45
0.000000001
 46
0.0
 47
0.0
 48
0.0
140
0.1
141
0.09
142
0.0
143
25.399999999999999
144
4.0
145
0.0
146
1.0
147
0.025
 71
     0
 72
     0
 73
     1
 74
     1
 75
     0
 76
     0
 77
     0
 78
    12
170
     0
171
     2
172
     0
173
     1
174
     0
175
     0
176
     0
177
     0
178
     0
  0
ENDTAB
  0
ENDSEC
  0
SECTION
  2
BLOCKS
  0
BLOCK
  8
0
  2
$MODEL_SPACE
 70
     0
 10
0.0
 20
0.0
 30
0.0
  3
$MODEL_SPACE
  1

  0
ENDBLK
  5
4EE
  8
0
  0
BLOCK
 67
     1
  8
0
  2
$PAPER_SPACE
 70
     0
 10
0.0
 20
0.0
 30
0.0
  3
$PAPER_SPACE
  1

  0
ENDBLK
  5
4EA
 67
     1
  8
0
  0
BLOCK
  8
0
  2
_D
 70
     0
 10
0.0
 20
0.0
 30
0.0
  3
_D
  1

  0
SOLID
  5
1EB
  8
0
  6
CONTINUOUS
 62
     7
 10
6.453143300199998
 20
7.3732206727999978
 30
0.0
 11
6.3751433001999986
 21
7.3862206727999977
 31
0.0
 12
6.3751433001999986
 22
7.3602206727999988
 32
0.0
 13
6.3751433001999986
 23
7.3602206727999988
 33
0.0
  0
SOLID
  5
1EC
  8
0
  6
CONTINUOUS
 62
     7
 10
1.708143300199999
 20
7.3732206727999978
 30
0.0
 11
1.7861433002
 21
7.3602206727999988
 31
0.0
 12
1.7861433002
 22
7.3862206727999977
 32
0.0
 13
1.7861433002
 23
7.3862206727999977
 33
0.0
  0
LINE
  5
1ED
  8
0
  6
CONTINUOUS
 62
     7
 10
6.453143300199998
 20
6.7782698854000003
 30
0.0
 11
6.453143300199998
 21
7.4232206727999976
 31
0.0
  0
LINE
  5
1EE
  8
0
  6
CONTINUOUS
 62
     7
 10
1.708143300199999
 20
6.7782698854000003
 30
0.0
 11
1.708143300199999
 21
7.4232206727999976
 31
0.0
  0
LINE
  5
1EF
  8
0
  6
CONTINUOUS
 62
     7
 10
6.453143300199998
 20
7.3732206727999978
 30
0.0
 11
4.2838377561999987
 21
7.3732206727999978
 31
0.0
  0
LINE
  5
1F0
  8
0
  6
CONTINUOUS
 62
     7
 10
1.708143300199999
 20
7.3732206727999978
 30
0.0
 11
3.877448844199999
 21
7.3732206727999978
 31
0.0
  0
INSERT
  5
1F1
  8
0
  2
*U3
 10
0.0
 20
0.0
 30
0.0
  0
ENDBLK
  5
1F2
  8
0
  0
BLOCK
  8
0
  2
*U3
 70
     1
 10
0.0
 20
0.0
 30
0.0
  3
*U3
  1

  0
TEXT
  5
438
  8
0
 62
     7
 10
3.877448844199999
 20
7.3227524462999982
 30
0.0
 40
0.1
  1
18.980
 41
0.75
  7
SLDTEXTSTYLE2
  0
ENDBLK
  5
43A
  8
0
  0
BLOCK
  8
0
  2
_D_1
 70
     0
 10
0.0
 20
0.0
 30
0.0
  3
_D_1
  1

  0
SOLID
  5
1F5
  8
0
  6
CONTINUOUS
 62
     7
 10
1.314442512799999
 20
6.9795198853999993
 30
0.0
 11
1.3014425128
 21
6.9015198853999991
 31
0.0
 12
1.3274425128
 22
6.9015198853999991
 32
0.0
 13
1.3274425128
 23
6.9015198853999991
 33
0.0
  0
SOLID
  5
1F6
  8
0
  6
CONTINUOUS
 62
     7
 10
1.314442512799999
 20
3.3595198854000001
 30
0.0
 11
1.3274425128
 21
3.4375198854
 31
0.0
 12
1.3014425128
 22
3.4375198854
 32
0.0
 13
1.3014425128
 23
3.4375198854
 33
0.0
  0
LINE
  5
1F7
  8
0
  6
CONTINUOUS
 62
     7
 10
1.9093933001999981
 20
6.9795198853999993
 30
0.0
 11
1.2644425128000001
 21
6.9795198853999993
 31
0.0
  0
LINE
  5
1F8
  8
0
  6
CONTINUOUS
 62
     7
 10
1.9093933001999981
 20
3.3595198854000001
 30
0.0
 11
1.2644425128000001
 21
3.3595198854000001
 31
0.0
  0
LINE
  5
1F9
  8
0
  6
CONTINUOUS
 62
     7
 10
1.314442512799999
 20
6.9795198853999993
 30
0.0
 11
1.314442512799999
 21
5.2488948860000004
 31
0.0
  0
LINE
  5
1FA
  8
0
  6
CONTINUOUS
 62
     7
 10
1.314442512799999
 20
3.3595198854000001
 30
0.0
 11
1.314442512799999
 21
5.0901448848999991
 31
0.0
  0
INSERT
  5
1FB
  8
0
  2
*U5
 10
0.0
 20
0.0
 30
0.0
  0
ENDBLK
  5
1FC
  8
0
  0
BLOCK
  8
0
  2
*U5
 70
     1
 10
0.0
 20
0.0
 30
0.0
  3
*U5
  1

  0
TEXT
  5
43C
  8
0
 62
     7
 10
1.1112480568000001
 20
5.1190516589000001
 30
0.0
 40
0.1
  1
14.480
 41
0.75
  7
SLDTEXTSTYLE2
  0
ENDBLK
  5
43E
  8
0
  0
BLOCK
  8
0
  2
_D_2
 70
     0
 10
0.0
 20
0.0
 30
0.0
  3
_D_2
  1

  0
SOLID
  5
1FF
  8
0
  6
CONTINUOUS
 62
     7
 10
1.7972642237000001
 20
6.9281133254999991
 30
0.0
 11
1.758859553899998
 21
6.9972369925000004
 31
0.0
 12
1.738516995399999
 22
6.981045009499999
 32
0.0
 13
1.738516995399999
 23
6.981045009499999
 33
0.0
  0
LINE
  5
200
  8
0
  6
CONTINUOUS
 62
     7
 10
1.7972642237000001
 20
6.9281133254999991
 30
0.0
 11
1.482698631599999
 21
7.3233131564999976
 31
0.0
  0
LINE
  5
201
  8
0
  6
CONTINUOUS
 62
     7
 10
1.482698631599999
 20
7.3233131564999976
 30
0.0
 11
1.3826986316000001
 21
7.3233131564999976
 31
0.0
  0
INSERT
  5
202
  8
0
  2
*U7
 10
0.0
 20
0.0
 30
0.0
  0
ENDBLK
  5
203
  8
0
  0
BLOCK
  8
0
  2
*U7
 70
     1
 10
0.0
 20
0.0
 30
0.0
  3
*U7
  1

  0
TEXT
  5
440
  8
0
 62
     7
 10
1.0431152845
 20
7.2728449298999989
 30
0.0
 40
0.1
  1
R.945
 41
0.75
  7
SLDTEXTSTYLE2
  0
ENDBLK
  5
442
  8
0
  0
BLOCK
  8
0
  2
_D_3
 70
     0
 10
0.0
 20
0.0
 30
0.0
  3
_D_3
  1

  0
SOLID
  5
206
  8
0
  6
CONTINUOUS
 62
     7
 10
3.205643300199998
 20
3.1259613551999981
 30
0.0
 11
3.2836433001999992
 21
3.1129613551999991
 31
0.0
 12
3.2836433001999992
 22
3.138961355199998
 32
0.0
 13
3.2836433001999992
 23
3.138961355199998
 33
0.0
  0
SOLID
  5
207
  8
0
  6
CONTINUOUS
 62
     7
 10
4.9556433002000002
 20
3.1259613551999981
 30
0.0
 11
4.877643300199999
 21
3.138961355199998
 31
0.0
 12
4.877643300199999
 22
3.1129613551999991
 32
0.0
 13
4.877643300199999
 23
3.1129613551999991
 33
0.0
  0
LINE
  5
208
  8
0
  6
CONTINUOUS
 62
     7
 10
3.205643300199998
 20
3.3989089581999981
 30
0.0
 11
3.205643300199998
 21
3.0759613552
 31
0.0
  0
LINE
  5
209
  8
0
  6
CONTINUOUS
 62
     7
 10
4.9556433002000002
 20
3.3989089581999981
 30
0.0
 11
4.9556433002000002
 21
3.0759613552
 31
0.0
  0
LINE
  5
20A
  8
0
  6
CONTINUOUS
 62
     7
 10
3.205643300199998
 20
3.1259613551999981
 30
0.0
 11
3.9143932923999989
 21
3.1259613551999981
 31
0.0
  0
LINE
  5
20B
  8
0
  6
CONTINUOUS
 62
     7
 10
4.9556433002000002
 20
3.1259613551999981
 30
0.0
 11
4.246893307999998
 21
3.1259613551999981
 31
0.0
  0
INSERT
  5
20C
  8
0
  2
*U9
 10
0.0
 20
0.0
 30
0.0
  0
ENDBLK
  5
20D
  8
0
  0
BLOCK
  8
0
  2
*U9
 70
     1
 10
0.0
 20
0.0
 30
0.0
  3
*U9
  1

  0
TEXT
  5
444
  8
0
 62
     7
 10
3.9143932923999989
 20
3.0754931285999989
 30
0.0
 40
0.1
  1
7.000
 41
0.75
  7
SLDTEXTSTYLE2
  0
ENDBLK
  5
446
  8
0
  0
BLOCK
  8
0
  2
_D_4
 70
     0
 10
0.0
 20
0.0
 30
0.0
  3
_D_4
  1

  0
SOLID
  5
210
  8
0
  6
CONTINUOUS
 62
     7
 10
1.7825323728999991
 20
2.965819097999999
 30
0.0
 11
1.8605323728999981
 21
2.9528190979999991
 31
0.0
 12
1.8605323728999981
 22
2.9788190980000002
 32
0.0
 13
1.8605323728999981
 23
2.9788190980000002
 33
0.0
  0
SOLID
  5
211
  8
0
  6
CONTINUOUS
 62
     7
 10
6.3787542274999991
 20
2.965819097999999
 30
0.0
 11
6.3007542274999979
 21
2.9788190980000002
 31
0.0
 12
6.3007542274999979
 22
2.9528190979999991
 32
0.0
 13
6.3007542274999979
 23
2.9528190979999991
 33
0.0
  0
LINE
  5
212
  8
0
  6
CONTINUOUS
 62
     7
 10
1.7825323728999991
 20
4.2595198853999987
 30
0.0
 11
1.7825323728999991
 21
2.9158190980000001
 31
0.0
  0
LINE
  5
213
  8
0
  6
CONTINUOUS
 62
     7
 10
6.3787542274999991
 20
4.2595198853999987
 30
0.0
 11
6.3787542274999991
 21
2.9158190980000001
 31
0.0
  0
LINE
  5
214
  8
0
  6
CONTINUOUS
 62
     7
 10
1.7825323728999991
 20
2.965819097999999
 30
0.0
 11
3.877448844199999
 21
2.965819097999999
 31
0.0
  0
LINE
  5
215
  8
0
  6
CONTINUOUS
 62
     7
 10
6.3787542274999991
 20
2.965819097999999
 30
0.0
 11
4.2838377561999987
 21
2.965819097999999
 31
0.0
  0
INSERT
  5
216
  8
0
  2
*U11
 10
0.0
 20
0.0
 30
0.0
  0
ENDBLK
  5
217
  8
0
  0
BLOCK
  8
0
  2
*U11
 70
     1
 10
0.0
 20
0.0
 30
0.0
  3
*U11
  1

  0
TEXT
  5
448
  8
0
 62
     7
 10
3.877448844199999
 20
2.9153508714999989
 30
0.0
 40
0.1
  1
18.385
 41
0.75
  7
SLDTEXTSTYLE2
  0
ENDBLK
  5
44A
  8
0
  0
BLOCK
  8
0
  2
_D_5
 70
     0
 10
0.0
 20
0.0
 30
0.0
  3
_D_5
  1

  0
SOLID
  5
21A
  8
0
  6
CONTINUOUS
 62
     7
 10
6.8468440876000001
 20
4.2945198853999988
 30
0.0
 11
6.8598440875999991
 21
4.3725198854
 31
0.0
 12
6.8338440876000002
 22
4.3725198854
 32
0.0
 13
6.8338440876000002
 23
4.3725198854
 33
0.0
  0
SOLID
  5
21B
  8
0
  6
CONTINUOUS
 62
     7
 10
6.8468440876000001
 20
6.044519885399998
 30
0.0
 11
6.8338440876000002
 21
5.9665198853999986
 31
0.0
 12
6.8598440875999991
 22
5.9665198853999986
 32
0.0
 13
6.8598440875999991
 23
5.9665198853999986
 33
0.0
  0
LINE
  5
21C
  8
0
  6
CONTINUOUS
 62
     7
 10
6.4137542275000001
 20
4.2945198853999988
 30
0.0
 11
6.896844087599999
 21
4.2945198853999988
 31
0.0
  0
LINE
  5
21D
  8
0
  6
CONTINUOUS
 62
     7
 10
6.4137542275000001
 20
6.044519885399998
 30
0.0
 11
6.896844087599999
 21
6.044519885399998
 31
0.0
  0
LINE
  5
21E
  8
0
  6
CONTINUOUS
 62
     7
 10
6.8468440876000001
 20
4.2945198853999988
 30
0.0
 11
6.8468440876000001
 21
5.0901448848999991
 31
0.0
  0
LINE
  5
21F
  8
0
  6
CONTINUOUS
 62
     7
 10
6.8468440876000001
 20
6.044519885399998
 30
0.0
 11
6.8468440876000001
 21
5.2488948860000004
 31
0.0
  0
INSERT
  5
220
  8
0
  2
*U13
 10
0.0
 20
0.0
 30
0.0
  0
ENDBLK
  5
221
  8
0
  0
BLOCK
  8
0
  2
*U13
 70
     1
 10
0.0
 20
0.0
 30
0.0
  3
*U13
  1

  0
TEXT
  5
44C
  8
0
 62
     7
 10
6.6805940797999988
 20
5.1190516589000001
 30
0.0
 40
0.1
  1
7.000
 41
0.75
  7
SLDTEXTSTYLE2
  0
ENDBLK
  5
44E
  8
0
  0
BLOCK
  8
0
  2
_D_6
 70
     0
 10
0.0
 20
0.0
 30
0.0
  3
_D_6
  1

  0
SOLID
  5
224
  8
0
  6
CONTINUOUS
 62
     7
 10
7.3192850324999981
 20
3.4339089581999991
 30
0.0
 11
7.3322850324999989
 21
3.511908958199998
 31
0.0
 12
7.3062850324999982
 22
3.511908958199998
 32
0.0
 13
7.3062850324999982
 23
3.511908958199998
 33
0.0
  0
SOLID
  5
225
  8
0
  6
CONTINUOUS
 62
     7
 10
7.3192850324999981
 20
6.9051308126999986
 30
0.0
 11
7.3062850324999982
 21
6.8271308127000001
 31
0.0
 12
7.3322850324999989
 22
6.8271308127000001
 32
0.0
 13
7.3322850324999989
 23
6.8271308127000001
 33
0.0
  0
LINE
  5
226
  8
0
  6
CONTINUOUS
 62
     7
 10
4.9906433001999986
 20
3.4339089581999991
 30
0.0
 11
7.3692850324999988
 21
3.4339089581999991
 31
0.0
  0
LINE
  5
227
  8
0
  6
CONTINUOUS
 62
     7
 10
4.9906433001999986
 20
6.9051308126999986
 30
0.0
 11
7.3692850324999988
 21
6.9051308126999986
 31
0.0
  0
LINE
  5
228
  8
0
  6
CONTINUOUS
 62
     7
 10
7.3192850324999981
 20
3.4339089581999991
 30
0.0
 11
7.3192850324999981
 21
5.0901448848999991
 31
0.0
  0
LINE
  5
229
  8
0
  6
CONTINUOUS
 62
     7
 10
7.3192850324999981
 20
6.9051308126999986
 30
0.0
 11
7.3192850324999981
 21
5.2488948860000004
 31
0.0
  0
INSERT
  5
22A
  8
0
  2
*U15
 10
0.0
 20
0.0
 30
0.0
  0
ENDBLK
  5
22B
  8
0
  0
BLOCK
  8
0
  2
*U15
 70
     1
 10
0.0
 20
0.0
 30
0.0
  3
*U15
  1

  0
TEXT
  5
450
  8
0
 62
     7
 10
7.1160905764999987
 20
5.1190516589000001
 30
0.0
 40
0.1
  1
13.885
 41
0.75
  7
SLDTEXTSTYLE2
  0
ENDBLK
  5
452
  8
0
  0
BLOCK
  8
0
  2
*D16
 70
     1
 10
0.0
 20
0.0
 30
0.0
  3
*D16
  1

  0
LINE
  5
2CB
  8
0
  6
CONTINUOUS
 62
     0
 10
5.4970729818630497
 20
4.3277713432826568
 30
0.0
 11
5.4970729818630497
 21
4.8952221306826571
 31
0.0
  0
LINE
  5
2CC
  8
0
  6
CONTINUOUS
 62
     0
 10
0.7520729818630521
 20
4.3277713432826568
 30
0.0
 11
0.7520729818630521
 21
4.8952221306826571
 31
0.0
  0
LINE
  5
2CD
  8
0
  6
CONTINUOUS
 62
     0
 10
5.4190729818630512
 20
4.8952221306826571
 30
0.0
 11
3.3183229818630511
 21
4.8952221306826571
 31
0.0
  0
LINE
  5
2CE
  8
0
  6
CONTINUOUS
 62
     0
 10
0.8300729818630518
 20
4.8952221306826571
 30
0.0
 11
2.93082298186305
 21
4.8952221306826571
 31
0.0
  0
SOLID
  5
2CF
  8
0
  6
CONTINUOUS
 62
     0
 10
5.4190729818630512
 20
4.908222130682657
 30
0.0
 11
5.4190729818630512
 21
4.8822221306826572
 31
0.0
 12
5.4970729818630497
 22
4.8952221306826571
 32
0.0
 13
5.4970729818630497
 23
4.8952221306826571
 33
0.0
  0
SOLID
  5
2D0
  8
0
  6
CONTINUOUS
 62
     0
 10
0.8300729818630518
 20
4.908222130682657
 30
0.0
 11
0.8300729818630518
 21
4.8822221306826572
 31
0.0
 12
0.7520729818630521
 22
4.8952221306826571
 32
0.0
 13
0.7520729818630521
 23
4.8952221306826571
 33
0.0
  0
INSERT
  5
2D1
  8
0
  2
*U17
 10
0.0
 20
0.0
 30
0.0
  0
POINT
  5
2D2
  8
DEFPOINTS
  6
CONTINUOUS
 62
     0
 10
5.4970729818630497
 20
4.2652713432826568
 30
0.0
  0
POINT
  5
2D3
  8
DEFPOINTS
  6
CONTINUOUS
 62
     0
 10
0.7520729818630521
 20
4.2652713432826568
 30
0.0
  0
POINT
  5
2D4
  8
DEFPOINTS
  6
CONTINUOUS
 62
     0
 10
0.7520729818630521
 20
4.8952221306826571
 30
0.0
  0
ENDBLK
  5
276
  8
0
  0
BLOCK
  8
0
  2
*U17
 70
     1
 10
0.0
 20
0.0
 30
0.0
  3
*U17
  1

  0
TEXT
  5
454
  8
0
 62
     0
 10
2.9558229818630499
 20
4.8452221306826591
 30
0.0
 40
0.1
  1
18.980
 41
0.75
  7
SLDTEXTSTYLE2
  0
ENDBLK
  5
456
  8
0
  0
BLOCK
  8
0
  2
*D18
 70
     1
 10
0.0
 20
0.0
 30
0.0
  3
*D18
  1

  0
LINE
  5
2D5
  8
0
  6
CONTINUOUS
 62
     0
 10
0.9258229818630516
 20
4.5015213432826569
 30
0.0
 11
0.3583721944630525
 21
4.5015213432826569
 31
0.0
  0
LINE
  5
2D6
  8
0
  6
CONTINUOUS
 62
     0
 10
0.9258229818630516
 20
0.8815213432826594
 30
0.0
 11
0.3583721944630516
 21
0.8815213432826595
 31
0.0
  0
LINE
  5
2D7
  8
0
  6
CONTINUOUS
 62
     0
 10
0.3583721944630524
 20
4.4235213432826566
 30
0.0
 11
0.358372194463052
 21
2.7665213432826601
 31
0.0
  0
LINE
  5
2D8
  8
0
  6
CONTINUOUS
 62
     0
 10
0.3583721944630516
 20
0.9595213432826595
 30
0.0
 11
0.358372194463052
 21
2.616521343282658
 31
0.0
  0
SOLID
  5
2D9
  8
0
  6
CONTINUOUS
 62
     0
 10
0.3453721944630524
 20
4.4235213432826566
 30
0.0
 11
0.3713721944630524
 21
4.4235213432826566
 31
0.0
 12
0.3583721944630524
 22
4.5015213432826569
 32
0.0
 13
0.3583721944630524
 23
4.5015213432826569
 33
0.0
  0
SOLID
  5
2DA
  8
0
  6
CONTINUOUS
 62
     0
 10
0.3453721944630516
 20
0.9595213432826595
 30
0.0
 11
0.3713721944630516
 21
0.9595213432826595
 31
0.0
 12
0.3583721944630516
 22
0.8815213432826595
 32
0.0
 13
0.3583721944630516
 23
0.8815213432826595
 33
0.0
  0
INSERT
  5
2DB
  8
0
  2
*U19
 10
0.0
 20
0.0
 30
0.0
  0
POINT
  5
2DC
  8
DEFPOINTS
  6
CONTINUOUS
 62
     0
 10
0.9883229818630516
 20
4.5015213432826569
 30
0.0
  0
POINT
  5
2DD
  8
DEFPOINTS
  6
CONTINUOUS
 62
     0
 10
0.9883229818630516
 20
0.8815213432826594
 30
0.0
  0
POINT
  5
2DE
  8
DEFPOINTS
  6
CONTINUOUS
 62
     0
 10
0.3583721944630516
 20
0.8815213432826595
 30
0.0
  0
ENDBLK
  5
283
  8
0
  0
BLOCK
  8
0
  2
*U19
 70
     1
 10
0.0
 20
0.0
 30
0.0
  3
*U19
  1

  0
TEXT
  5
458
  8
0
 62
     0
 10
0.1896221944630515
 20
2.6415213432826592
 30
0.0
 40
0.1
  1
14.480
 41
0.75
  7
SLDTEXTSTYLE2
  0
ENDBLK
  5
45A
  8
0
  0
BLOCK
  8
0
  2
*D20
 70
     1
 10
0.0
 20
0.0
 30
0.0
  3
*D20
  1

  0
LINE
  5
2DF
  8
0
  6
CONTINUOUS
 62
     0
 10
0.4318366397630517
 20
4.8453146143826569
 30
0.0
 11
0.526628313332683
 21
4.8453146143826569
 31
0.0
  0
LINE
  5
2E0
  8
0
  6
CONTINUOUS
 62
     0
 10
0.526628313332683
 20
4.8453146143826569
 30
0.0
 11
0.7926179562962739
 21
4.5111424588443843
 31
0.0
  0
INSERT
  5
2E1
  8
0
  2
*U21
 10
0.0
 20
0.0
 30
0.0
  0
SOLID
  5
2E2
  8
0
  6
CONTINUOUS
 62
     0
 10
0.802789235539895
 20
4.5192384503555134
 30
0.0
 11
0.7824466770526533
 21
4.5030464673332551
 31
0.0
 12
0.8411939053630515
 22
4.4501147833826566
 32
0.0
 13
0.8411939053630515
 23
4.4501147833826566
 33
0.0
  0
POINT
  5
2E3
  8
DEFPOINTS
  6
CONTINUOUS
 62
     0
 10
0.8411939053630515
 20
4.4501147833826566
 30
0.0
  0
POINT
  5
2E4
  8
DEFPOINTS
  6
CONTINUOUS
 62
     0
 10
0.9883229818630518
 20
4.2652713432826577
 30
0.0
  0
ENDBLK
  5
290
  8
0
  0
BLOCK
  8
0
  2
*U21
 70
     1
 10
0.0
 20
0.0
 30
0.0
  3
*U21
  1

  0
TEXT
  5
45C
  8
0
 62
     0
 10
0.1068366397630517
 20
4.795314614382657
 30
0.0
 40
0.1
  1
R.945
 41
0.75
  7
SLDTEXTSTYLE2
  0
ENDBLK
  5
45E
  8
0
  0
BLOCK
  8
0
  2
*D22
 70
     1
 10
0.0
 20
0.0
 30
0.0
  3
*D22
  1

  0
LINE
  5
2E5
  8
0
  6
CONTINUOUS
 62
     0
 10
2.2495729818630501
 20
0.8934104160826593
 30
0.0
 11
2.2495729818630501
 21
0.6479628130826594
 31
0.0
  0
LINE
  5
2E6
  8
0
  6
CONTINUOUS
 62
     0
 10
3.9995729818630501
 20
0.8934104160826593
 30
0.0
 11
3.9995729818630501
 21
0.6479628130826594
 31
0.0
  0
LINE
  5
2E7
  8
0
  6
CONTINUOUS
 62
     0
 10
2.32757298186305
 20
0.6479628130826594
 30
0.0
 11
2.9683229818630501
 21
0.6479628130826594
 31
0.0
  0
LINE
  5
2E8
  8
0
  6
CONTINUOUS
 62
     0
 10
3.9215729818630511
 20
0.6479628130826594
 30
0.0
 11
3.2808229818630501
 21
0.6479628130826594
 31
0.0
  0
SOLID
  5
2E9
  8
0
  6
CONTINUOUS
 62
     0
 10
2.32757298186305
 20
0.6609628130826593
 30
0.0
 11
2.32757298186305
 21
0.6349628130826593
 31
0.0
 12
2.2495729818630501
 22
0.6479628130826594
 32
0.0
 13
2.2495729818630501
 23
0.6479628130826594
 33
0.0
  0
SOLID
  5
2EA
  8
0
  6
CONTINUOUS
 62
     0
 10
3.9215729818630511
 20
0.6609628130826593
 30
0.0
 11
3.9215729818630511
 21
0.6349628130826593
 31
0.0
 12
3.9995729818630501
 22
0.6479628130826594
 32
0.0
 13
3.9995729818630501
 23
0.6479628130826594
 33
0.0
  0
INSERT
  5
2EB
  8
0
  2
*U23
 10
0.0
 20
0.0
 30
0.0
  0
POINT
  5
2EC
  8
DEFPOINTS
  6
CONTINUOUS
 62
     0
 10
2.2495729818630501
 20
0.9559104160826593
 30
0.0
  0
POINT
  5
2ED
  8
DEFPOINTS
  6
CONTINUOUS
 62
     0
 10
3.9995729818630501
 20
0.9559104160826593
 30
0.0
  0
POINT
  5
2EE
  8
DEFPOINTS
  6
CONTINUOUS
 62
     0
 10
3.9995729818630501
 20
0.6479628130826594
 30
0.0
  0
ENDBLK
  5
299
  8
0
  0
BLOCK
  8
0
  2
*U23
 70
     1
 10
0.0
 20
0.0
 30
0.0
  3
*U23
  1

  0
TEXT
  5
460
  8
0
 62
     0
 10
2.99332298186305
 20
0.5979628130826593
 30
0.0
 40
0.1
  1
7.000
 41
0.75
  7
SLDTEXTSTYLE2
  0
ENDBLK
  5
462
  8
0
  0
BLOCK
  8
0
  2
*D24
 70
     1
 10
0.0
 20
0.0
 30
0.0
  3
*D24
  1

  0
LINE
  5
2EF
  8
0
  6
CONTINUOUS
 62
     0
 10
0.8264620545630517
 20
1.754021343282659
 30
0.0
 11
0.8264620545630516
 21
0.4878205558826596
 31
0.0
  0
LINE
  5
2F0
  8
0
  6
CONTINUOUS
 62
     0
 10
5.4226839091630499
 20
1.754021343282659
 30
0.0
 11
5.4226839091630499
 21
0.4878205558826596
 31
0.0
  0
LINE
  5
2F1
  8
0
  6
CONTINUOUS
 62
     0
 10
0.9044620545630516
 20
0.4878205558826596
 30
0.0
 11
2.9245729818630499
 21
0.4878205558826596
 31
0.0
  0
LINE
  5
2F2
  8
0
  6
CONTINUOUS
 62
     0
 10
5.3446839091630514
 20
0.4878205558826596
 30
0.0
 11
3.3245729818630521
 21
0.4878205558826596
 31
0.0
  0
SOLID
  5
2F3
  8
0
  6
CONTINUOUS
 62
     0
 10
0.9044620545630516
 20
0.5008205558826596
 30
0.0
 11
0.9044620545630516
 21
0.4748205558826597
 31
0.0
 12
0.8264620545630516
 22
0.4878205558826596
 32
0.0
 13
0.8264620545630516
 23
0.4878205558826596
 33
0.0
  0
SOLID
  5
2F4
  8
0
  6
CONTINUOUS
 62
     0
 10
5.3446839091630514
 20
0.5008205558826596
 30
0.0
 11
5.3446839091630514
 21
0.4748205558826597
 31
0.0
 12
5.4226839091630499
 22
0.4878205558826596
 32
0.0
 13
5.4226839091630499
 23
0.4878205558826596
 33
0.0
  0
INSERT
  5
2F5
  8
0
  2
*U25
 10
0.0
 20
0.0
 30
0.0
  0
POINT
  5
2F6
  8
DEFPOINTS
  6
CONTINUOUS
 62
     0
 10
0.8264620545630517
 20
1.816521343282659
 30
0.0
  0
POINT
  5
2F7
  8
DEFPOINTS
  6
CONTINUOUS
 62
     0
 10
5.4226839091630499
 20
1.816521343282659
 30
0.0
  0
POINT
  5
2F8
  8
DEFPOINTS
  6
CONTINUOUS
 62
     0
 10
5.4226839091630499
 20
0.4878205558826596
 30
0.0
  0
ENDBLK
  5
2A6
  8
0
  0
BLOCK
  8
0
  2
*U25
 70
     1
 10
0.0
 20
0.0
 30
0.0
  3
*U25
  1

  0
TEXT
  5
464
  8
0
 62
     0
 10
2.9495729818630521
 20
0.4378205558826597
 30
0.0
 40
0.1
  1
18.385
 41
0.75
  7
SLDTEXTSTYLE2
  0
ENDBLK
  5
466
  8
0
  0
BLOCK
  8
0
  2
*D26
 70
     1
 10
0.0
 20
0.0
 30
0.0
  3
*D26
  1

  0
LINE
  5
2F9
  8
0
  6
CONTINUOUS
 62
     0
 10
5.4851839091630499
 20
1.816521343282659
 30
0.0
 11
5.8907737692630491
 21
1.816521343282659
 31
0.0
  0
LINE
  5
2FA
  8
0
  6
CONTINUOUS
 62
     0
 10
5.4851839091630499
 20
3.5665213432826581
 30
0.0
 11
5.8907737692630509
 21
3.5665213432826581
 31
0.0
  0
LINE
  5
2FB
  8
0
  6
CONTINUOUS
 62
     0
 10
5.8907737692630491
 20
1.8945213432826591
 30
0.0
 11
5.8907737692630509
 21
2.6165213432826571
 31
0.0
  0
LINE
  5
2FC
  8
0
  6
CONTINUOUS
 62
     0
 10
5.8907737692630509
 20
3.4885213432826592
 30
0.0
 11
5.8907737692630509
 21
2.7665213432826592
 31
0.0
  0
SOLID
  5
2FD
  8
0
  6
CONTINUOUS
 62
     0
 10
5.8777737692630501
 20
1.8945213432826591
 30
0.0
 11
5.9037737692630499
 21
1.8945213432826591
 31
0.0
 12
5.8907737692630491
 22
1.816521343282659
 32
0.0
 13
5.8907737692630491
 23
1.816521343282659
 33
0.0
  0
SOLID
  5
2FE
  8
0
  6
CONTINUOUS
 62
     0
 10
5.877773769263051
 20
3.4885213432826592
 30
0.0
 11
5.9037737692630508
 21
3.4885213432826592
 31
0.0
 12
5.8907737692630509
 22
3.5665213432826581
 32
0.0
 13
5.8907737692630509
 23
3.5665213432826581
 33
0.0
  0
INSERT
  5
2FF
  8
0
  2
*U27
 10
0.0
 20
0.0
 30
0.0
  0
POINT
  5
300
  8
DEFPOINTS
  6
CONTINUOUS
 62
     0
 10
5.4226839091630499
 20
1.816521343282659
 30
0.0
  0
POINT
  5
301
  8
DEFPOINTS
  6
CONTINUOUS
 62
     0
 10
5.4226839091630499
 20
3.5665213432826581
 30
0.0
  0
POINT
  5
302
  8
DEFPOINTS
  6
CONTINUOUS
 62
     0
 10
5.8907737692630509
 20
3.5665213432826581
 30
0.0
  0
ENDBLK
  5
2B3
  8
0
  0
BLOCK
  8
0
  2
*U27
 70
     1
 10
0.0
 20
0.0
 30
0.0
  3
*U27
  1

  0
TEXT
  5
468
  8
0
 62
     0
 10
5.7595237692630521
 20
2.6415213432826592
 30
0.0
 40
0.1
  1
7.000
 41
0.75
  7
SLDTEXTSTYLE2
  0
ENDBLK
  5
46A
  8
0
  0
BLOCK
  8
0
  2
*D28
 70
     1
 10
0.0
 20
0.0
 30
0.0
  3
*D28
  1

  0
LINE
  5
303
  8
0
  6
CONTINUOUS
 62
     0
 10
4.0620729818630501
 20
0.9559104160826593
 30
0.0
 11
6.3632147141630497
 21
0.9559104160826583
 31
0.0
  0
LINE
  5
304
  8
0
  6
CONTINUOUS
 62
     0
 10
4.0620729818630501
 20
4.427132270582657
 30
0.0
 11
6.3632147141630524
 21
4.427132270582657
 31
0.0
  0
LINE
  5
305
  8
0
  6
CONTINUOUS
 62
     0
 10
6.3632147141630497
 20
1.0339104160826571
 30
0.0
 11
6.3632147141630524
 21
2.6165213432826571
 31
0.0
  0
LINE
  5
306
  8
0
  6
CONTINUOUS
 62
     0
 10
6.3632147141630524
 20
4.3491322705826558
 30
0.0
 11
6.3632147141630524
 21
2.7665213432826592
 31
0.0
  0
SOLID
  5
307
  8
0
  6
CONTINUOUS
 62
     0
 10
6.3502147141630498
 20
1.0339104160826571
 30
0.0
 11
6.3762147141630514
 21
1.0339104160826571
 31
0.0
 12
6.3632147141630497
 22
0.9559104160826583
 32
0.0
 13
6.3632147141630497
 23
0.9559104160826583
 33
0.0
  0
SOLID
  5
308
  8
0
  6
CONTINUOUS
 62
     0
 10
6.3502147141630507
 20
4.3491322705826558
 30
0.0
 11
6.3762147141630523
 21
4.3491322705826558
 31
0.0
 12
6.3632147141630524
 22
4.427132270582657
 32
0.0
 13
6.3632147141630524
 23
4.427132270582657
 33
0.0
  0
INSERT
  5
309
  8
0
  2
*U29
 10
0.0
 20
0.0
 30
0.0
  0
POINT
  5
30A
  8
DEFPOINTS
  6
CONTINUOUS
 62
     0
 10
3.9995729818630501
 20
0.9559104160826593
 30
0.0
  0
POINT
  5
30B
  8
DEFPOINTS
  6
CONTINUOUS
 62
     0
 10
3.9995729818630501
 20
4.427132270582657
 30
0.0
  0
POINT
  5
30C
  8
DEFPOINTS
  6
CONTINUOUS
 62
     0
 10
6.3632147141630524
 20
4.427132270582657
 30
0.0
  0
ENDBLK
  5
2C0
  8
0
  0
BLOCK
  8
0
  2
*U29
 70
     1
 10
0.0
 20
0.0
 30
0.0
  3
*U29
  1

  0
TEXT
  5
46C
  8
0
 62
     0
 10
6.1882147141630499
 20
2.6415213432826592
 30
0.0
 40
0.1
  1
13.885
 41
0.75
  7
SLDTEXTSTYLE2
  0
ENDBLK
  5
46E
  8
0
  0
BLOCK
  8
0
  2
*D30
 70
     1
 10
0.0
 20
0.0
 30
0.0
  3
*D30
  1

  0
LINE
  5
324
  8
0
 62
     0
 10
1.800391202721848
 20
6.7300536369879724
 30
0.0
 11
1.620391202721847
 21
6.7300536369879742
 31
0.0
  0
LINE
  5
325
  8
0
 62
     0
 10
1.620391202721847
 20
6.7300536369879742
 30
0.0
 11
1.2509217974266891
 21
6.3814473340640161
 31
0.0
  0
INSERT
  5
326
  8
0
  2
*U31
 10
0.0
 20
0.0
 30
0.0
  0
SOLID
  5
327
  8
0
 62
     0
 10
1.2303336141441581
 20
6.4032676619516717
 30
0.0
 11
1.2715099807092201
 21
6.3596270061763569
 31
0.0
 12
1.119999830100745
 22
6.257918234368824
 32
0.0
 13
1.119999830100745
 23
6.257918234368824
 33
0.0
  0
LINE
  5
328
  8
0
 62
     0
 10
0.9596292726630512
 20
6.191521343282659
 30
0.0
 11
1.139629272663051
 21
6.191521343282659
 31
0.0
  0
LINE
  5
329
  8
0
 62
     0
 10
1.0496292726630501
 20
6.1015213432826592
 30
0.0
 11
1.0496292726630501
 21
6.2815213432826571
 31
0.0
  0
POINT
  5
32A
  8
DEFPOINTS
 62
     0
 10
1.119999830100745
 20
6.257918234368824
 30
0.0
  0
POINT
  5
32B
  8
DEFPOINTS
 62
     0
 10
0.9792587152253564
 20
6.125124452196494
 30
0.0
  0
ENDBLK
  5
31A
  8
0
  0
BLOCK
  8
0
  2
*U31
 70
     1
 10
0.0
 20
0.0
 30
0.0
  3
*U31
  1

  0
TEXT
  5
473
  8
0
 62
     0
 10
1.880200206814618
 20
6.6436757379429521
 30
0.0
 40
0.18
  1
Ø0.1935
  0
ENDBLK
  5
475
  8
0
  0
BLOCK
  8
0
  2
*D32
 70
     1
 10
0.0
 20
0.0
 30
0.0
  3
*D32
  1

  0
LINE
  5
3C9
  8
0
 62
     0
 10
6.9167064743880733
 20
15.82623800936088
 30
0.0
 11
6.73670647438807
 21
15.826238009360891
 31
0.0
  0
LINE
  5
3CA
  8
0
 62
     0
 10
6.73670647438807
 20
15.826238009360891
 30
0.0
 11
6.6498222410064063
 21
15.184529285339551
 31
0.0
  0
INSERT
  5
3CB
  8
0
  2
*U33
 10
0.0
 20
0.0
 30
0.0
  0
SOLID
  5
3CC
  8
0
 62
     0
 10
6.6200934948170929
 20
15.18855441266815
 30
0.0
 11
6.6795509871957179
 21
15.18050415801096
 31
0.0
 12
6.6256714770348317
 22
15.00615680820367
 32
0.0
 13
6.6256714770348317
 23
15.00615680820367
 33
0.0
  0
LINE
  5
3CD
  8
0
 62
     0
 10
6.5226904414001119
 20
14.91028160174314
 30
0.0
 11
6.7026904414001134
 21
14.91028160174314
 31
0.0
  0
LINE
  5
3CE
  8
0
 62
     0
 10
6.6126904414001109
 20
14.82028160174314
 30
0.0
 11
6.61269044140011
 21
15.00028160174314
 31
0.0
  0
POINT
  5
3CF
  8
DEFPOINTS
 62
     0
 10
6.6256714770348317
 20
15.00615680820367
 30
0.0
  0
POINT
  5
3D0
  8
DEFPOINTS
 62
     0
 10
6.59970940576539
 20
14.8144063952826
 30
0.0
  0
ENDBLK
  5
3BF
  8
0
  0
BLOCK
  8
0
  2
*U33
 70
     1
 10
0.0
 20
0.0
 30
0.0
  3
*U33
  1

  0
TEXT
  5
477
  8
0
 62
     0
 10
6.9965154784808412
 20
15.73986011031587
 30
0.0
 40
0.18
  1
Ø0.1935
  0
ENDBLK
  5
479
  8
0
  0
BLOCK
  8
0
  2
*D34
 70
     1
 10
0.0
 20
0.0
 30
0.0
  3
*D34
  1

  0
LINE
  5
3E1
  8
0
 62
     0
 10
0.6226904414001178
 20
8.0303378925431481
 30
0.0
 11
0.6226904414001178
 21
8.1478378925431496
 31
0.0
  0
LINE
  5
3E2
  8
0
 62
     0
 10
19.602690441400121
 20
8.0303378925431481
 30
0.0
 11
19.602690441400121
 21
8.1478378925431496
 31
0.0
  0
LINE
  5
3E3
  8
0
 62
     0
 10
0.8026904414001176
 20
7.967837892543149
 30
0.0
 11
9.5879155437193528
 21
7.967837892543149
 31
0.0
  0
LINE
  5
3E4
  8
0
 62
     0
 10
19.422690441400121
 20
7.967837892543149
 30
0.0
 11
10.63746533908088
 21
7.967837892543149
 31
0.0
  0
SOLID
  5
3E5
  8
0
 62
     0
 10
0.8026904414001176
 20
7.9978378925431484
 30
0.0
 11
0.8026904414001176
 21
7.937837892543147
 31
0.0
 12
0.6226904414001178
 22
7.967837892543149
 32
0.0
 13
0.6226904414001178
 23
7.967837892543149
 33
0.0
  0
SOLID
  5
3E6
  8
0
 62
     0
 10
19.422690441400121
 20
7.9978378925431484
 30
0.0
 11
19.422690441400121
 21
7.937837892543147
 31
0.0
 12
19.602690441400121
 22
7.967837892543149
 32
0.0
 13
19.602690441400121
 23
7.967837892543149
 33
0.0
  0
INSERT
  5
3E7
  8
0
  2
*U35
 10
0.0
 20
0.0
 30
0.0
  0
POINT
  5
3E8
  8
DEFPOINTS
 62
     0
 10
0.6226904414001178
 20
7.967837892543149
 30
0.0
  0
POINT
  5
3E9
  8
DEFPOINTS
 62
     0
 10
19.602690441400121
 20
7.967837892543149
 30
0.0
  0
POINT
  5
3EA
  8
DEFPOINTS
 62
     0
 10
19.602690441400121
 20
7.967837892543149
 30
0.0
  0
ENDBLK
  5
3D5
  8
0
  0
BLOCK
  8
0
  2
*U35
 70
     1
 10
0.0
 20
0.0
 30
0.0
  3
*U35
  1

  0
TEXT
  5
47B
  8
0
 62
     0
 10
9.6505349161613712
 20
7.8793726810833933
 30
0.0
 40
0.18
  1
18.9800
  0
ENDBLK
  5
47D
  8
0
  0
ENDSEC
  0
SECTION
  2
ENTITIES
  0
CIRCLE
  5
255
  8
0
 10
0.9202467322001172
 20
11.46783789254315
 30
0.0
 40
0.09675
  0
CIRCLE
  5
257
  8
0
 10
13.61269044140011
 20
14.91028160174314
 30
0.0
 40
0.09675
  0
CIRCLE
  5
259
  8
0
 10
6.6126904414001153
 20
14.91028160174314
 30
0.0
 40
0.09675
  0
CIRCLE
  5
267
  8
0
 10
6.6126904414001153
 20
1.0253941837431491
 30
0.0
 40
0.09675
  0
CIRCLE
  5
268
  8
0
 10
19.305134150600122
 20
4.4678378925431499
 30
0.0
 40
0.09675
  0
CIRCLE
  5
269
  8
0
 10
19.305134150600122
 20
11.46783789254315
 30
0.0
 40
0.09675
  0
CIRCLE
  5
26A
  8
0
 10
13.61269044140011
 20
1.0253941837431491
 30
0.0
 40
0.09675
  0
CIRCLE
  5
26B
  8
0
 10
0.9202467322001172
 20
4.4678378925431499
 30
0.0
 40
0.09675
  0
POLYLINE
  5
55D
  8
0
 66
     1
 10
0.0
 20
0.0
 30
0.0
 70
     1
  0
VERTEX
  5
5B0
  8
0
 10
19.581440441400119
 20
1.672837892543148
 30
0.0
  0
VERTEX
  5
5B1
  8
0
 10
19.581440441400119
 20
14.26283789254315
 30
0.0
 42
0.4142135623730957
  0
VERTEX
  5
5B2
  8
0
 10
18.657690441400121
 20
15.18658789254315
 30
0.0
  0
VERTEX
  5
5B3
  8
0
 10
1.5676904414001169
 20
15.18658789254315
 30
0.0
 42
0.4142135623730957
  0
VERTEX
  5
5B4
  8
0
 10
0.6439404414001189
 20
14.26283789254315
 30
0.0
  0
VERTEX
  5
5B5
  8
0
 10
0.6439404414001189
 20
1.6728378925431511
 30
0.0
 42
0.4142135623730948
  0
VERTEX
  5
5B6
  8
0
 10
1.567690441400116
 20
0.7490878925431517
 30
0.0
  0
VERTEX
  5
5B7
  8
0
 10
18.657690441400121
 20
0.7490878925431517
 30
0.0
 42
0.4142135623730951
  0
SEQEND
  5
5B8
  8
0
  0
ENDSEC
  0
EOF
