  0
SECTION
  2
HEADER
  9
$ACADVER
  1
AC1009
  9
$INSBASE
 10
0.0
 20
0.0
 30
0.0
  9
$EXTMIN
 10
-2.7830961060578381
 20
0.2093186686037458
 30
0.0
  9
$EXTMAX
 10
26.569868043665849
 20
8.4980440893536056
 30
0.0
  9
$LIMMIN
 10
0.0
 20
0.0
  9
$LIMMAX
 10
12.0
 20
9.0
  9
$ORTHOMODE
 70
     0
  9
$REGENMODE
 70
     1
  9
$FILLMODE
 70
     1
  9
$QTEXTMODE
 70
     0
  9
$MIRRTEXT
 70
     0
  9
$DRAGMODE
 70
     2
  9
$LTSCALE
 40
1.0
  9
$OSMODE
 70
  2087
  9
$ATTMODE
 70
     1
  9
$TEXTSIZE
 40
0.2
  9
$TRACEWID
 40
0.05
  9
$TEXTSTYLE
  7
STANDARD
  9
$CLAYER
  8
0
  9
$CELTYPE
  6
BYLAYER
  9
$CECOLOR
 62
     1
  9
$DIMSCALE
 40
1.0
  9
$DIMASZ
 40
0.18
  9
$DIMEXO
 40
0.0625
  9
$DIMDLI
 40
0.38
  9
$DIMRND
 40
0.0
  9
$DIMDLE
 40
0.0
  9
$DIMEXE
 40
0.18
  9
$DIMTP
 40
0.0
  9
$DIMTM
 40
0.0
  9
$DIMTXT
 40
0.18
  9
$DIMCEN
 40
0.09
  9
$DIMTSZ
 40
0.0
  9
$DIMTOL
 70
     0
  9
$DIMLIM
 70
     0
  9
$DIMTIH
 70
     1
  9
$DIMTOH
 70
     1
  9
$DIMSE1
 70
     0
  9
$DIMSE2
 70
     0
  9
$DIMTAD
 70
     0
  9
$DIMZIN
 70
     0
  9
$DIMBLK
  1

  9
$DIMASO
 70
     1
  9
$DIMSHO
 70
     1
  9
$DIMPOST
  1

  9
$DIMAPOST
  1

  9
$DIMALT
 70
     0
  9
$DIMALTD
 70
     2
  9
$DIMALTF
 40
25.399999999999999
  9
$DIMLFAC
 40
1.0
  9
$DIMTOFL
 70
     0
  9
$DIMTVP
 40
0.0
  9
$DIMTIX
 70
     0
  9
$DIMSOXD
 70
     0
  9
$DIMSAH
 70
     0
  9
$DIMBLK1
  1

  9
$DIMBLK2
  1

  9
$DIMSTYLE
  2
STANDARD
  9
$DIMCLRD
 70
     0
  9
$DIMCLRE
 70
     0
  9
$DIMCLRT
 70
     0
  9
$DIMTFAC
 40
1.0
  9
$DIMGAP
 40
0.09
  9
$LUNITS
 70
     2
  9
$LUPREC
 70
     4
  9
$SKETCHINC
 40
0.1
  9
$FILLETRAD
 40
0.0
  9
$AUNITS
 70
     0
  9
$AUPREC
 70
     0
  9
$MENU
  1
.
  9
$ELEVATION
 40
0.0
  9
$PELEVATION
 40
0.0
  9
$THICKNESS
 40
0.0
  9
$LIMCHECK
 70
     0
  9
$BLIPMODE
 70
     0
  9
$CHAMFERA
 40
0.0
  9
$CHAMFERB
 40
0.0
  9
$SKPOLY
 70
     0
  9
$TDCREATE
 40
2459060.3475457761
  9
$TDUPDATE
 40
2459062.3264051159
  9
$TDINDWG
 40
0.1493510185
  9
$TDUSRTIMER
 40
0.1493510069
  9
$USRTIMER
 70
     1
  9
$ANGBASE
 50
0.0
  9
$ANGDIR
 70
     0
  9
$PDMODE
 70
     0
  9
$PDSIZE
 40
0.0
  9
$PLINEWID
 40
0.0
  9
$COORDS
 70
     1
  9
$SPLFRAME
 70
     0
  9
$SPLINETYPE
 70
     6
  9
$SPLINESEGS
 70
     8
  9
$ATTDIA
 70
     1
  9
$ATTREQ
 70
     1
  9
$HANDLING
 70
     1
  9
$HANDSEED
  5
33A2
  9
$SURFTAB1
 70
     6
  9
$SURFTAB2
 70
     6
  9
$SURFTYPE
 70
     6
  9
$SURFU
 70
     6
  9
$SURFV
 70
     6
  9
$UCSNAME
  2

  9
$UCSORG
 10
0.0
 20
0.0
 30
0.0
  9
$UCSXDIR
 10
1.0
 20
0.0
 30
0.0
  9
$UCSYDIR
 10
0.0
 20
1.0
 30
0.0
  9
$PUCSNAME
  2

  9
$PUCSORG
 10
0.0
 20
0.0
 30
0.0
  9
$PUCSXDIR
 10
1.0
 20
0.0
 30
0.0
  9
$PUCSYDIR
 10
0.0
 20
1.0
 30
0.0
  9
$USERI1
 70
     0
  9
$USERI2
 70
     0
  9
$USERI3
 70
     0
  9
$USERI4
 70
     0
  9
$USERI5
 70
     0
  9
$USERR1
 40
0.0
  9
$USERR2
 40
0.0
  9
$USERR3
 40
0.0
  9
$USERR4
 40
0.0
  9
$USERR5
 40
0.0
  9
$WORLDVIEW
 70
     1
  9
$SHADEDGE
 70
     3
  9
$SHADEDIF
 70
    70
  9
$TILEMODE
 70
     1
  9
$MAXACTVP
 70
    64
  9
$PLIMCHECK
 70
     0
  9
$PEXTMIN
 10
0.0
 20
0.0
 30
0.0
  9
$PEXTMAX
 10
0.0
 20
0.0
 30
0.0
  9
$PLIMMIN
 10
0.0
 20
0.0
  9
$PLIMMAX
 10
12.0
 20
9.0
  9
$UNITMODE
 70
     0
  9
$VISRETAIN
 70
     1
  9
$PLINEGEN
 70
     0
  9
$PSLTSCALE
 70
     1
  0
ENDSEC
  0
SECTION
  2
TABLES
  0
TABLE
  2
VPORT
 70
     1
  0
VPORT
  2
*ACTIVE
 70
     0
 10
0.0
 20
0.0
 11
1.0
 21
1.0
 12
2.0198098744152122
 22
3.2888029476455638
 13
0.0
 23
0.0
 14
0.5
 24
0.5
 15
0.5
 25
0.5
 16
0.0
 26
0.0
 36
1.0
 17
0.0
 27
0.0
 37
0.0
 40
14.233868801593021
 41
2.2927120669056151
 42
50.0
 43
0.0
 44
0.0
 50
0.0
 51
0.0
 71
     0
 72
  1000
 73
     1
 74
     3
 75
     0
 76
     1
 77
     0
 78
     0
  0
ENDTAB
  0
TABLE
  2
LTYPE
 70
     3
  0
LTYPE
  2
CONTINUOUS
 70
     0
  3
Solid line
 72
    65
 73
     0
 40
0.0
  0
LTYPE
  2
CENTERX2
 70
     0
  3
Center (2x) ________  __  ________  __  _____
 72
    65
 73
     4
 40
0.8
 49
0.5
 49
-0.1
 49
0.1
 49
-0.1
  0
ENDTAB
  0
TABLE
  2
LAYER
 70
     2
  0
LAYER
  2
0
 70
     0
 62
     7
  6
CONTINUOUS
  0
LAYER
  2
DEFPOINTS
 70
     0
 62
     7
  6
CONTINUOUS
  0
ENDTAB
  0
TABLE
  2
STYLE
 70
     3
  0
STYLE
  2
STANDARD
 70
     0
 40
0.0
 41
1.0
 50
0.0
 71
     0
 42
0.2
  3
txt
  4

  0
STYLE
  2
ANNOTATIVE
 70
     0
 40
0.0
 41
1.0
 50
0.0
 71
     0
 42
0.2
  3
txt
  4

  0
STYLE
  2
SLDTEXTSTYLE2
 70
     0
 40
0.0
 41
0.75
 50
0.0
 71
     0
 42
0.1
  3
TXT
  4

  0
ENDTAB
  0
TABLE
  2
VIEW
 70
     0
  0
ENDTAB
  0
TABLE
  2
UCS
 70
     0
  0
ENDTAB
  0
TABLE
  2
APPID
 70
    10
  0
APPID
  2
ACAD
 70
     0
  0
APPID
  2
ACADANNOTATIVE
 70
     0
  0
APPID
  2
ACADANNOPO
 70
     0
  0
APPID
  2
ACAD_DSTYLE_DIMJAG
 70
     0
  0
APPID
  2
ACAD_DSTYLE_DIMTALN
 70
     0
  0
APPID
  2
ACAD_MLEADERVER
 70
     0
  0
APPID
  2
ACAD_NAV_VCDISPLAY
 70
     0
  0
APPID
  2
ACAD_PSEXT
 70
     0
  0
APPID
  2
ACAD_EXEMPT_FROM_CAD_STANDARDS
 70
     0
  0
APPID
  2
ACAD_DSTYLE_DIMRADIAL_EXTENSION
 70
     0
  0
ENDTAB
  0
TABLE
  2
DIMSTYLE
 70
     8
  0
DIMSTYLE
  2
STANDARD
 70
     0
  3

  4

  5

  6

  7

 40
1.0
 41
0.18
 42
0.0625
 43
0.38
 44
0.18
 45
0.0
 46
0.0
 47
0.0
 48
0.0
140
0.18
141
0.09
142
0.0
143
25.399999999999999
144
1.0
145
0.0
146
1.0
147
0.09
 71
     0
 72
     0
 73
     1
 74
     1
 75
     0
 76
     0
 77
     0
 78
     0
170
     0
171
     2
172
     0
173
     0
174
     0
175
     0
176
     0
177
     0
178
     0
  0
DIMSTYLE
  2
ANNOTATIVE
 70
     0
  3

  4

  5

  6

  7

 40
0.0
 41
0.18
 42
0.0625
 43
0.38
 44
0.18
 45
0.0
 46
0.0
 47
0.0
 48
0.0
140
0.18
141
0.09
142
0.0
143
25.399999999999999
144
1.0
145
0.0
146
1.0
147
0.09
 71
     0
 72
     0
 73
     1
 74
     1
 75
     0
 76
     0
 77
     0
 78
     0
170
     0
171
     2
172
     0
173
     0
174
     0
175
     0
176
     0
177
     0
178
     0
  0
DIMSTYLE
  2
SLDDIMSTYLE0
 70
     0
  3

  4

  5

  6

  7

 40
1.0
 41
0.078
 42
0.0625
 43
0.38
 44
0.0
 45
0.000000001
 46
0.0
 47
0.0
 48
0.0
140
0.1
141
0.09
142
0.0
143
25.399999999999999
144
2.0
145
0.0
146
1.0
147
0.025
 71
     0
 72
     0
 73
     1
 74
     1
 75
     0
 76
     0
 77
     0
 78
     4
170
     0
171
     2
172
     0
173
     1
174
     0
175
     0
176
     0
177
     0
178
     0
  0
DIMSTYLE
  2
SLDDIMSTYLE1
 70
     0
  3

  4

  5

  6

  7

 40
1.0
 41
0.078
 42
0.0625
 43
0.38
 44
0.0
 45
0.000000001
 46
0.0
 47
0.0
 48
0.0
140
0.1
141
0.09
142
0.0
143
25.399999999999999
144
2.0
145
0.0
146
1.0
147
0.025
 71
     0
 72
     0
 73
     1
 74
     1
 75
     0
 76
     0
 77
     0
 78
    12
170
     0
171
     2
172
     1
173
     1
174
     0
175
     0
176
     0
177
     0
178
     0
  0
DIMSTYLE
  2
SLDDIMSTYLE2
 70
     0
  3

  4

  5

  6

  7

 40
1.0
 41
0.078
 42
0.0625
 43
0.38
 44
0.0
 45
0.000000001
 46
0.0
 47
0.0
 48
0.0
140
0.1
141
0.09
142
0.0
143
25.399999999999999
144
2.0
145
0.0
146
1.0
147
0.025
 71
     0
 72
     0
 73
     1
 74
     1
 75
     0
 76
     0
 77
     0
 78
    12
170
     0
171
     2
172
     0
173
     1
174
     0
175
     0
176
     0
177
     0
178
     0
  0
DIMSTYLE
  2
SLDDIMSTYLE3
 70
     0
  3

  4

  5

  6

  7

 40
1.0
 41
0.078
 42
0.0625
 43
0.38
 44
0.0
 45
0.000000001
 46
0.0
 47
0.0
 48
0.0
140
0.1
141
0.0
142
0.0
143
25.399999999999999
144
2.0
145
0.0
146
1.0
147
0.025
 71
     0
 72
     0
 73
     1
 74
     1
 75
     0
 76
     0
 77
     0
 78
    12
170
     0
171
     2
172
     0
173
     1
174
     0
175
     0
176
     0
177
     0
178
     0
  0
DIMSTYLE
  2
SLDDIMSTYLE4
 70
     0
  3

  4

  5

  6

  7

 40
1.0
 41
0.078
 42
0.0625
 43
0.38
 44
0.0
 45
0.000000001
 46
0.0
 47
0.0
 48
0.0
140
0.18
141
0.09
142
0.0
143
25.399999999999999
144
1.0
145
0.0
146
0.078
147
0.0
 71
     0
 72
     0
 73
     1
 74
     1
 75
     0
 76
     0
 77
     0
 78
     0
170
     0
171
     2
172
     0
173
     1
174
     0
175
     0
176
     0
177
     0
178
     0
  0
ENDTAB
  0
ENDSEC
  0
SECTION
  2
BLOCKS
  0
BLOCK
  8
0
  2
$MODEL_SPACE
 70
     0
 10
0.0
 20
0.0
 30
0.0
  3
$MODEL_SPACE
  1

  0
ENDBLK
  5
320D
  8
0
  0
BLOCK
 67
     1
  8
0
  2
$PAPER_SPACE
 70
     0
 10
0.0
 20
0.0
 30
0.0
  3
$PAPER_SPACE
  1

  0
ENDBLK
  5
3209
 67
     1
  8
0
  0
BLOCK
  8
0
  2
_D
 70
     0
 10
0.0
 20
0.0
 30
0.0
  3
_D
  1

  0
LINE
  5
1EB
  8
0
  6
CONTINUOUS
 62
     0
 10
3.2270755308999992
 20
7.0829661028999986
 30
0.0
 11
2.4271542711
 21
7.0829661028999986
 31
0.0
  0
LINE
  5
1EC
  8
0
  6
CONTINUOUS
 62
     0
 10
3.2270755308999992
 20
3.4129661029
 30
0.0
 11
2.4271542711
 21
3.4129661029
 31
0.0
  0
LINE
  5
1ED
  8
0
  6
CONTINUOUS
 62
     0
 10
2.4271542711
 20
7.0049661028999992
 30
0.0
 11
2.4271542711
 21
5.3229661028999979
 31
0.0
  0
LINE
  5
1EE
  8
0
  6
CONTINUOUS
 62
     0
 10
2.4271542711
 20
3.490966102899999
 30
0.0
 11
2.4271542711
 21
5.1729661029000003
 31
0.0
  0
SOLID
  5
1EF
  8
0
  6
CONTINUOUS
 62
     0
 10
2.414154271100001
 20
7.0049661028999992
 30
0.0
 11
2.4401542710999999
 21
7.0049661028999992
 31
0.0
 12
2.4271542711
 22
7.0829661028999986
 32
0.0
 13
2.4271542711
 23
7.0829661028999986
 33
0.0
  0
SOLID
  5
1F0
  8
0
  6
CONTINUOUS
 62
     0
 10
2.4141542711000001
 20
3.490966102899999
 30
0.0
 11
2.4401542710999991
 21
3.490966102899999
 31
0.0
 12
2.4271542711
 22
3.4129661029
 32
0.0
 13
2.4271542711
 23
3.4129661029
 33
0.0
  0
INSERT
  5
1F1
  8
0
 62
     1
  2
*U3
 10
0.0
 20
0.0
 30
0.0
  0
POINT
  5
1F2
  8
DEFPOINTS
  6
CONTINUOUS
 62
     0
 10
3.2895755308999992
 20
7.0829661028999986
 30
0.0
  0
POINT
  5
1F3
  8
DEFPOINTS
  6
CONTINUOUS
 62
     0
 10
3.2895755308999992
 20
3.4129661029
 30
0.0
  0
POINT
  5
1F4
  8
DEFPOINTS
  6
CONTINUOUS
 62
     0
 10
2.4271542711
 20
3.4129661029
 30
0.0
  0
ENDBLK
  5
1F5
  8
0
  0
BLOCK
  8
0
 62
     1
  2
*U3
 70
     1
 10
0.0
 20
0.0
 30
0.0
  3
*U3
  1

  0
TEXT
  5
1BC8
  8
0
 62
     0
 10
2.2834042711000002
 20
5.1979661028999988
 30
0.0
 40
0.1
  1
7.340
 41
0.75
  7
SLDTEXTSTYLE2
  0
ENDBLK
  5
1BCA
  8
0
 62
     1
  0
BLOCK
  8
0
  2
_D_1
 70
     0
 10
0.0
 20
0.0
 30
0.0
  3
_D_1
  1

  0
LINE
  5
1F8
  8
0
  6
CONTINUOUS
 62
     0
 10
3.057075530899998
 20
6.9129661028999987
 30
0.0
 11
3.057075530899998
 21
7.7128873627000001
 31
0.0
  0
LINE
  5
1F9
  8
0
  6
CONTINUOUS
 62
     0
 10
7.807075530899998
 20
6.9129661028999987
 30
0.0
 11
7.807075530899998
 21
7.7128873627000001
 31
0.0
  0
LINE
  5
1FA
  8
0
  6
CONTINUOUS
 62
     0
 10
3.1350755308999991
 20
7.7128873627000001
 30
0.0
 11
5.2695755309000001
 21
7.7128873627000001
 31
0.0
  0
LINE
  5
1FB
  8
0
  6
CONTINUOUS
 62
     0
 10
7.7290755309000003
 20
7.7128873627000001
 30
0.0
 11
5.5945755309000003
 21
7.7128873627000001
 31
0.0
  0
SOLID
  5
1FC
  8
0
  6
CONTINUOUS
 62
     0
 10
3.1350755308999991
 20
7.7258873626999982
 30
0.0
 11
3.1350755308999991
 21
7.6998873627000002
 31
0.0
 12
3.057075530899998
 22
7.7128873627000001
 32
0.0
 13
3.057075530899998
 23
7.7128873627000001
 33
0.0
  0
SOLID
  5
1FD
  8
0
  6
CONTINUOUS
 62
     0
 10
7.7290755309000003
 20
7.7258873626999982
 30
0.0
 11
7.7290755309000003
 21
7.6998873627000002
 31
0.0
 12
7.807075530899998
 22
7.7128873627000001
 32
0.0
 13
7.807075530899998
 23
7.7128873627000001
 33
0.0
  0
INSERT
  5
1FE
  8
0
 62
     1
  2
*U5
 10
0.0
 20
0.0
 30
0.0
  0
POINT
  5
1FF
  8
DEFPOINTS
  6
CONTINUOUS
 62
     0
 10
3.057075530899998
 20
6.8504661028999987
 30
0.0
  0
POINT
  5
200
  8
DEFPOINTS
  6
CONTINUOUS
 62
     0
 10
7.807075530899998
 20
6.8504661028999987
 30
0.0
  0
POINT
  5
201
  8
DEFPOINTS
  6
CONTINUOUS
 62
     0
 10
7.807075530899998
 20
7.7128873627000001
 30
0.0
  0
ENDBLK
  5
202
  8
0
  0
BLOCK
  8
0
 62
     1
  2
*U5
 70
     1
 10
0.0
 20
0.0
 30
0.0
  3
*U5
  1

  0
TEXT
  5
1BCC
  8
0
 62
     0
 10
5.2945755309000004
 20
7.6628873627000003
 30
0.0
 40
0.1
  1
9.500
 41
0.75
  7
SLDTEXTSTYLE2
  0
ENDBLK
  5
1BCE
  8
0
 62
     1
  0
BLOCK
  8
0
  2
_D_2
 70
     0
 10
0.0
 20
0.0
 30
0.0
  3
_D_2
  1

  0
LINE
  5
205
  8
0
  6
CONTINUOUS
 62
     0
 10
3.057075530899998
 20
3.5829661028999991
 30
0.0
 11
3.057075530899998
 21
3.0192653154000002
 31
0.0
  0
LINE
  5
206
  8
0
  6
CONTINUOUS
 62
     0
 10
3.1983536764
 20
5.1854661029000004
 30
0.0
 11
3.1983536764
 21
3.0192653154000002
 31
0.0
  0
LINE
  5
207
  8
0
  6
CONTINUOUS
 62
     0
 10
3.2763536763999981
 20
3.0192653154000002
 30
0.0
 11
3.3543536764000002
 21
3.0192653154000002
 31
0.0
  0
LINE
  5
208
  8
0
  6
CONTINUOUS
 62
     0
 10
2.9790755308999981
 20
3.0192653154000002
 30
0.0
 11
2.793782474299999
 21
3.0192653154000002
 31
0.0
  0
LINE
  5
209
  8
0
  6
CONTINUOUS
 62
     0
 10
3.1983536764
 20
3.0192653154000002
 30
0.0
 11
3.057075530899998
 21
3.0192653154000002
 31
0.0
  0
SOLID
  5
20A
  8
0
  6
CONTINUOUS
 62
     0
 10
3.2763536763999981
 20
3.0322653154000001
 30
0.0
 11
3.2763536763999981
 21
3.006265315399999
 31
0.0
 12
3.1983536764
 22
3.0192653154000002
 32
0.0
 13
3.1983536764
 23
3.0192653154000002
 33
0.0
  0
SOLID
  5
20B
  8
0
  6
CONTINUOUS
 62
     0
 10
2.9790755308999981
 20
3.0322653154000001
 30
0.0
 11
2.9790755308999981
 21
3.006265315399999
 31
0.0
 12
3.057075530899998
 22
3.0192653154000002
 32
0.0
 13
3.057075530899998
 23
3.0192653154000002
 33
0.0
  0
INSERT
  5
20C
  8
0
 62
     1
  2
*U7
 10
0.0
 20
0.0
 30
0.0
  0
POINT
  5
20D
  8
DEFPOINTS
  6
CONTINUOUS
 62
     0
 10
3.057075530899998
 20
3.6454661028999991
 30
0.0
  0
POINT
  5
20E
  8
DEFPOINTS
  6
CONTINUOUS
 62
     0
 10
3.1983536764
 20
5.2479661029000004
 30
0.0
  0
POINT
  5
20F
  8
DEFPOINTS
  6
CONTINUOUS
 62
     0
 10
3.1983536764
 20
3.0192653154000002
 30
0.0
  0
ENDBLK
  5
210
  8
0
  0
BLOCK
  8
0
 62
     1
  2
*U7
 70
     1
 10
0.0
 20
0.0
 30
0.0
  3
*U7
  1

  0
TEXT
  5
1BD0
  8
0
 62
     0
 10
2.543782474299999
 20
2.9692653153999991
 30
0.0
 40
0.1
  1
.283
 41
0.75
  7
SLDTEXTSTYLE2
  0
ENDBLK
  5
1BD2
  8
0
 62
     1
  0
BLOCK
  8
0
  2
_D_3
 70
     0
 10
0.0
 20
0.0
 30
0.0
  3
_D_3
  1

  0
LINE
  5
213
  8
0
  6
CONTINUOUS
 62
     0
 10
6.6195755308999988
 20
3.4917442482999981
 30
0.0
 11
6.6195755308999988
 21
3.0217653154000002
 31
0.0
  0
LINE
  5
214
  8
0
  6
CONTINUOUS
 62
     0
 10
4.244575530899998
 20
3.4917442482999981
 30
0.0
 11
4.244575530899998
 21
3.0217653154000002
 31
0.0
  0
LINE
  5
215
  8
0
  6
CONTINUOUS
 62
     0
 10
6.5415755309000003
 20
3.0217653154000002
 30
0.0
 11
5.600825530899999
 21
3.0217653154000002
 31
0.0
  0
LINE
  5
216
  8
0
  6
CONTINUOUS
 62
     0
 10
4.3225755309
 20
3.0217653154000002
 30
0.0
 11
5.2633255309000004
 21
3.0217653154000002
 31
0.0
  0
SOLID
  5
217
  8
0
  6
CONTINUOUS
 62
     0
 10
6.5415755309000003
 20
3.0347653154000001
 30
0.0
 11
6.5415755309000003
 21
3.0087653153999989
 31
0.0
 12
6.6195755308999988
 22
3.0217653154000002
 32
0.0
 13
6.6195755308999988
 23
3.0217653154000002
 33
0.0
  0
SOLID
  5
218
  8
0
  6
CONTINUOUS
 62
     0
 10
4.3225755309
 20
3.0347653154000001
 30
0.0
 11
4.3225755309
 21
3.0087653153999989
 31
0.0
 12
4.244575530899998
 22
3.0217653154000002
 32
0.0
 13
4.244575530899998
 23
3.0217653154000002
 33
0.0
  0
INSERT
  5
219
  8
0
 62
     1
  2
*U9
 10
0.0
 20
0.0
 30
0.0
  0
POINT
  5
21A
  8
DEFPOINTS
  6
CONTINUOUS
 62
     0
 10
6.6195755308999988
 20
3.5542442482999981
 30
0.0
  0
POINT
  5
21B
  8
DEFPOINTS
  6
CONTINUOUS
 62
     0
 10
4.244575530899998
 20
3.5542442482999981
 30
0.0
  0
POINT
  5
21C
  8
DEFPOINTS
  6
CONTINUOUS
 62
     0
 10
4.244575530899998
 20
3.0217653154000002
 30
0.0
  0
ENDBLK
  5
21D
  8
0
  0
BLOCK
  8
0
 62
     1
  2
*U9
 70
     1
 10
0.0
 20
0.0
 30
0.0
  3
*U9
  1

  0
TEXT
  5
1BD4
  8
0
 62
     0
 10
5.288325530899999
 20
2.9717653153999981
 30
0.0
 40
0.1
  1
4.750
 41
0.75
  7
SLDTEXTSTYLE2
  0
ENDBLK
  5
1BD6
  8
0
 62
     1
  0
BLOCK
  8
0
  2
_D_4
 70
     0
 10
0.0
 20
0.0
 30
0.0
  3
_D_4
  1

  0
LINE
  5
220
  8
0
  6
CONTINUOUS
 62
     0
 10
7.6657973853999977
 20
5.1854661029000004
 30
0.0
 11
7.6657973853999977
 21
2.7855448429999989
 31
0.0
  0
LINE
  5
221
  8
0
  6
CONTINUOUS
 62
     0
 10
3.1983536764
 20
5.1854661029000004
 30
0.0
 11
3.1983536764
 21
2.7855448429999989
 31
0.0
  0
LINE
  5
222
  8
0
  6
CONTINUOUS
 62
     0
 10
7.5877973853999983
 20
2.7855448429999989
 30
0.0
 11
5.6070755309000004
 21
2.7855448429999989
 31
0.0
  0
LINE
  5
223
  8
0
  6
CONTINUOUS
 62
     0
 10
3.2763536763999981
 20
2.7855448429999989
 30
0.0
 11
5.257075530899999
 21
2.7855448429999989
 31
0.0
  0
SOLID
  5
224
  8
0
  6
CONTINUOUS
 62
     0
 10
7.5877973853999983
 20
2.7985448430000002
 30
0.0
 11
7.5877973853999983
 21
2.772544842999999
 31
0.0
 12
7.6657973853999977
 22
2.7855448429999989
 32
0.0
 13
7.6657973853999977
 23
2.7855448429999989
 33
0.0
  0
SOLID
  5
225
  8
0
  6
CONTINUOUS
 62
     0
 10
3.2763536763999981
 20
2.7985448430000002
 30
0.0
 11
3.2763536763999981
 21
2.772544842999999
 31
0.0
 12
3.1983536764
 22
2.7855448429999989
 32
0.0
 13
3.1983536764
 23
2.7855448429999989
 33
0.0
  0
INSERT
  5
226
  8
0
 62
     1
  2
*U11
 10
0.0
 20
0.0
 30
0.0
  0
POINT
  5
227
  8
DEFPOINTS
  6
CONTINUOUS
 62
     0
 10
7.6657973853999977
 20
5.2479661029000004
 30
0.0
  0
POINT
  5
228
  8
DEFPOINTS
  6
CONTINUOUS
 62
     0
 10
3.1983536764
 20
5.2479661029000004
 30
0.0
  0
POINT
  5
229
  8
DEFPOINTS
  6
CONTINUOUS
 62
     0
 10
3.1983536764
 20
2.7855448429999989
 30
0.0
  0
ENDBLK
  5
22A
  8
0
  0
BLOCK
  8
0
 62
     1
  2
*U11
 70
     1
 10
0.0
 20
0.0
 30
0.0
  3
*U11
  1

  0
TEXT
  5
1BD8
  8
0
 62
     0
 10
5.2820755309000003
 20
2.735544843
 30
0.0
 40
0.1
  1
8.935
 41
0.75
  7
SLDTEXTSTYLE2
  0
ENDBLK
  5
1BDA
  8
0
 62
     1
  0
BLOCK
  8
0
  2
_D_5
 70
     0
 10
0.0
 20
0.0
 30
0.0
  3
_D_5
  1

  0
LINE
  5
22D
  8
0
  6
CONTINUOUS
 62
     0
 10
7.6370755308999989
 20
3.4129661029
 30
0.0
 11
8.4162763183000013
 21
3.4129661029
 31
0.0
  0
LINE
  5
22E
  8
0
  6
CONTINUOUS
 62
     0
 10
6.6820755308999988
 20
3.5542442482999981
 30
0.0
 11
8.4162763183000013
 21
3.5542442482999981
 31
0.0
  0
LINE
  5
22F
  8
0
  6
CONTINUOUS
 62
     0
 10
8.4162763183000013
 20
3.6322442482999988
 30
0.0
 11
8.4162763183000013
 21
3.7102442482999991
 31
0.0
  0
LINE
  5
230
  8
0
  6
CONTINUOUS
 62
     0
 10
8.4162763183000013
 20
3.3349661029000002
 30
0.0
 11
8.4162763183000013
 21
3.204909416699997
 31
0.0
  0
LINE
  5
231
  8
0
  6
CONTINUOUS
 62
     0
 10
8.4162763183000013
 20
3.204909416699997
 30
0.0
 11
8.3382763183000002
 21
3.204909416699997
 31
0.0
  0
LINE
  5
232
  8
0
  6
CONTINUOUS
 62
     0
 10
8.4162763183000013
 20
3.5542442482999981
 30
0.0
 11
8.4162763183000013
 21
3.4129661029
 31
0.0
  0
SOLID
  5
233
  8
0
  6
CONTINUOUS
 62
     0
 10
8.4032763183000014
 20
3.6322442482999988
 30
0.0
 11
8.4292763183000012
 21
3.6322442482999988
 31
0.0
 12
8.4162763183000013
 22
3.5542442482999981
 32
0.0
 13
8.4162763183000013
 23
3.5542442482999981
 33
0.0
  0
SOLID
  5
234
  8
0
  6
CONTINUOUS
 62
     0
 10
8.4032763183000014
 20
3.3349661029000002
 30
0.0
 11
8.4292763183000012
 21
3.3349661029000002
 31
0.0
 12
8.4162763183000013
 22
3.4129661029
 32
0.0
 13
8.4162763183000013
 23
3.4129661029
 33
0.0
  0
INSERT
  5
235
  8
0
 62
     1
  2
*U13
 10
0.0
 20
0.0
 30
0.0
  0
POINT
  5
236
  8
DEFPOINTS
  6
CONTINUOUS
 62
     0
 10
7.5745755308999989
 20
3.4129661029
 30
0.0
  0
POINT
  5
237
  8
DEFPOINTS
  6
CONTINUOUS
 62
     0
 10
6.6195755308999988
 20
3.5542442482999981
 30
0.0
  0
POINT
  5
238
  8
DEFPOINTS
  6
CONTINUOUS
 62
     0
 10
8.4162763183000013
 20
3.5542442482999981
 30
0.0
  0
ENDBLK
  5
239
  8
0
  0
BLOCK
  8
0
 62
     1
  2
*U13
 70
     1
 10
0.0
 20
0.0
 30
0.0
  3
*U13
  1

  0
TEXT
  5
1BDC
  8
0
 62
     0
 10
8.0882763183000002
 20
3.154909416699998
 30
0.0
 40
0.1
  1
.283
 41
0.75
  7
SLDTEXTSTYLE2
  0
ENDBLK
  5
1BDE
  8
0
 62
     1
  0
BLOCK
  8
0
  2
_D_6
 70
     0
 10
0.0
 20
0.0
 30
0.0
  3
_D_6
  1

  0
LINE
  5
23C
  8
0
  6
CONTINUOUS
 62
     0
 10
6.6820755308999988
 20
3.5542442482999981
 30
0.0
 11
8.4344967907000008
 21
3.5542442482999981
 31
0.0
  0
LINE
  5
23D
  8
0
  6
CONTINUOUS
 62
     0
 10
6.6820755308999988
 20
6.9416879574000001
 30
0.0
 11
8.4344967907000008
 21
6.9416879574000001
 31
0.0
  0
LINE
  5
23E
  8
0
  6
CONTINUOUS
 62
     0
 10
8.4344967907000008
 20
3.6322442482999988
 30
0.0
 11
8.4344967907000008
 21
5.1729661029000003
 31
0.0
  0
LINE
  5
23F
  8
0
  6
CONTINUOUS
 62
     0
 10
8.4344967907000008
 20
6.863687957399998
 30
0.0
 11
8.4344967907000008
 21
5.3229661028999979
 31
0.0
  0
SOLID
  5
240
  8
0
  6
CONTINUOUS
 62
     0
 10
8.4214967906999991
 20
3.6322442482999988
 30
0.0
 11
8.4474967907000007
 21
3.6322442482999988
 31
0.0
 12
8.4344967907000008
 22
3.5542442482999981
 32
0.0
 13
8.4344967907000008
 23
3.5542442482999981
 33
0.0
  0
SOLID
  5
241
  8
0
  6
CONTINUOUS
 62
     0
 10
8.4214967906999991
 20
6.863687957399998
 30
0.0
 11
8.4474967907000025
 21
6.863687957399998
 31
0.0
 12
8.4344967907000008
 22
6.9416879574000001
 32
0.0
 13
8.4344967907000008
 23
6.9416879574000001
 33
0.0
  0
INSERT
  5
242
  8
0
 62
     1
  2
*U15
 10
0.0
 20
0.0
 30
0.0
  0
POINT
  5
243
  8
DEFPOINTS
  6
CONTINUOUS
 62
     0
 10
6.6195755308999988
 20
3.5542442482999981
 30
0.0
  0
POINT
  5
244
  8
DEFPOINTS
  6
CONTINUOUS
 62
     0
 10
6.6195755308999988
 20
6.9416879574000001
 30
0.0
  0
POINT
  5
245
  8
DEFPOINTS
  6
CONTINUOUS
 62
     0
 10
8.4344967907000008
 20
6.9416879574000001
 30
0.0
  0
ENDBLK
  5
246
  8
0
  0
BLOCK
  8
0
 62
     1
  2
*U15
 70
     1
 10
0.0
 20
0.0
 30
0.0
  3
*U15
  1

  0
TEXT
  5
1BE0
  8
0
 62
     0
 10
8.2844967907000004
 20
5.1979661028999988
 30
0.0
 40
0.1
  1
6.775
 41
0.75
  7
SLDTEXTSTYLE2
  0
ENDBLK
  5
1BE2
  8
0
 62
     1
  0
BLOCK
  8
0
  2
_D_7
 70
     0
 10
0.0
 20
0.0
 30
0.0
  3
_D_7
  1

  0
LINE
  5
249
  8
0
  6
CONTINUOUS
 62
     0
 10
6.6820755308999988
 20
3.5542442482999981
 30
0.0
 11
8.1982763182999978
 21
3.5542442482999981
 31
0.0
  0
LINE
  5
24A
  8
0
  6
CONTINUOUS
 62
     0
 10
7.7282973853999977
 20
5.2479661029000004
 30
0.0
 11
8.1982763183000014
 21
5.2479661029000004
 31
0.0
  0
LINE
  5
24B
  8
0
  6
CONTINUOUS
 62
     0
 10
8.1982763182999978
 20
3.6322442482999988
 30
0.0
 11
8.1982763183000014
 21
4.3261051755999969
 31
0.0
  0
LINE
  5
24C
  8
0
  6
CONTINUOUS
 62
     0
 10
8.1982763183000014
 20
5.1699661029000001
 30
0.0
 11
8.1982763183000014
 21
4.4761051755999981
 31
0.0
  0
SOLID
  5
24D
  8
0
  6
CONTINUOUS
 62
     0
 10
8.1852763182999961
 20
3.6322442482999988
 30
0.0
 11
8.2112763182999977
 21
3.6322442482999988
 31
0.0
 12
8.1982763182999978
 22
3.5542442482999981
 32
0.0
 13
8.1982763182999978
 23
3.5542442482999981
 33
0.0
  0
SOLID
  5
24E
  8
0
  6
CONTINUOUS
 62
     0
 10
8.1852763183000015
 20
5.1699661029000001
 30
0.0
 11
8.2112763183000013
 21
5.1699661029000001
 31
0.0
 12
8.1982763183000014
 22
5.2479661029000004
 32
0.0
 13
8.1982763183000014
 23
5.2479661029000004
 33
0.0
  0
INSERT
  5
24F
  8
0
 62
     1
  2
*U17
 10
0.0
 20
0.0
 30
0.0
  0
POINT
  5
250
  8
DEFPOINTS
  6
CONTINUOUS
 62
     0
 10
6.6195755308999988
 20
3.5542442482999981
 30
0.0
  0
POINT
  5
251
  8
DEFPOINTS
  6
CONTINUOUS
 62
     0
 10
7.6657973853999977
 20
5.2479661029000004
 30
0.0
  0
POINT
  5
252
  8
DEFPOINTS
  6
CONTINUOUS
 62
     0
 10
8.1982763183000014
 20
5.2479661029000004
 30
0.0
  0
ENDBLK
  5
253
  8
0
  0
BLOCK
  8
0
 62
     1
  2
*U17
 70
     1
 10
0.0
 20
0.0
 30
0.0
  3
*U17
  1

  0
TEXT
  5
1BE4
  8
0
 62
     0
 10
8.0482763182999992
 20
4.3511051755999981
 30
0.0
 40
0.1
  1
3.387
 41
0.75
  7
SLDTEXTSTYLE2
  0
ENDBLK
  5
1BE6
  8
0
 62
     1
  0
BLOCK
  8
0
  2
_D_8
 70
     0
 10
0.0
 20
0.0
 30
0.0
  3
_D_8
  1

  0
LINE
  5
256
  8
0
  6
CONTINUOUS
 62
     0
 10
3.1983536764
 20
5.1854661029000004
 30
0.0
 11
3.1983536764
 21
3.0217653154000002
 31
0.0
  0
LINE
  5
257
  8
0
  6
CONTINUOUS
 62
     0
 10
4.244575530899998
 20
3.4917442482999981
 30
0.0
 11
4.244575530899998
 21
3.0217653154000002
 31
0.0
  0
LINE
  5
258
  8
0
  6
CONTINUOUS
 62
     0
 10
3.2763536763999981
 20
3.0217653154000002
 30
0.0
 11
3.5527146036000001
 21
3.0217653154000002
 31
0.0
  0
LINE
  5
259
  8
0
  6
CONTINUOUS
 62
     0
 10
4.1665755309000003
 20
3.0217653154000002
 30
0.0
 11
3.8902146036
 21
3.0217653154000002
 31
0.0
  0
SOLID
  5
25A
  8
0
  6
CONTINUOUS
 62
     0
 10
3.2763536763999981
 20
3.0347653154000001
 30
0.0
 11
3.2763536763999981
 21
3.0087653153999989
 31
0.0
 12
3.1983536764
 22
3.0217653154000002
 32
0.0
 13
3.1983536764
 23
3.0217653154000002
 33
0.0
  0
SOLID
  5
25B
  8
0
  6
CONTINUOUS
 62
     0
 10
4.1665755309000003
 20
3.0347653154000001
 30
0.0
 11
4.1665755309000003
 21
3.0087653153999989
 31
0.0
 12
4.244575530899998
 22
3.0217653154000002
 32
0.0
 13
4.244575530899998
 23
3.0217653154000002
 33
0.0
  0
INSERT
  5
25C
  8
0
 62
     1
  2
*U19
 10
0.0
 20
0.0
 30
0.0
  0
POINT
  5
25D
  8
DEFPOINTS
  6
CONTINUOUS
 62
     0
 10
3.1983536764
 20
5.2479661029000004
 30
0.0
  0
POINT
  5
25E
  8
DEFPOINTS
  6
CONTINUOUS
 62
     0
 10
4.244575530899998
 20
3.5542442482999981
 30
0.0
  0
POINT
  5
25F
  8
DEFPOINTS
  6
CONTINUOUS
 62
     0
 10
4.244575530899998
 20
3.0217653154000002
 30
0.0
  0
ENDBLK
  5
260
  8
0
  0
BLOCK
  8
0
 62
     1
  2
*U19
 70
     1
 10
0.0
 20
0.0
 30
0.0
  3
*U19
  1

  0
TEXT
  5
1BE8
  8
0
 62
     0
 10
3.5777146036
 20
2.9717653153999981
 30
0.0
 40
0.1
  1
2.092
 41
0.75
  7
SLDTEXTSTYLE2
  0
ENDBLK
  5
1BEA
  8
0
 62
     1
  0
BLOCK
  8
0
  2
_D_9
 70
     0
 10
0.0
 20
0.0
 30
0.0
  3
_D_9
  1

  0
LINE
  5
263
  8
0
  6
CONTINUOUS
 62
     0
 10
2.6358608601285161
 20
7.4766668902999989
 30
0.0
 11
2.7138608601285181
 21
7.4766668902999989
 31
0.0
  0
LINE
  5
264
  8
0
  6
CONTINUOUS
 62
     0
 10
2.7138608601285181
 20
7.4766668902999989
 30
0.0
 11
3.0794266014753839
 21
7.079043611443625
 31
0.0
  0
INSERT
  5
265
  8
0
 62
     1
  2
*U21
 10
0.0
 20
0.0
 30
0.0
  0
SOLID
  5
266
  8
0
  6
CONTINUOUS
 62
     0
 10
3.088996674299322
 20
7.0878421173477291
 30
0.0
 11
3.0698565286514472
 21
7.0702451055395228
 31
0.0
 12
3.1322176369000001
 22
7.0216231745000002
 32
0.0
 13
3.1322176369000001
 23
7.0216231745000002
 33
0.0
  0
POINT
  5
267
  8
DEFPOINTS
  6
CONTINUOUS
 62
     0
 10
3.1322176369000001
 20
7.0216231745000002
 30
0.0
  0
POINT
  5
268
  8
DEFPOINTS
  6
CONTINUOUS
 62
     0
 10
3.2895755308999992
 20
6.8504661028999969
 30
0.0
  0
ENDBLK
  5
269
  8
0
  0
BLOCK
  8
0
 62
     1
  2
*U21
 70
     1
 10
0.0
 20
0.0
 30
0.0
  3
*U21
  1

  0
TEXT
  5
1BEC
  8
0
 62
     0
 10
2.085860860128514
 20
7.426666890299999
 30
0.0
 40
0.1
  1
4x R.465
 41
0.75
  7
SLDTEXTSTYLE2
  0
ENDBLK
  5
1BEE
  8
0
 62
     1
  0
BLOCK
  8
0
  2
SW_NOTE_1
 70
     0
 10
0.0
 20
0.0
 30
0.0
  3
SW_NOTE_1
  1

  0
INSERT
  5
26C
  8
0
 62
     1
  2
*U23
 10
0.0
 20
0.0
 30
0.0
  0
INSERT
  5
26D
  8
0
 62
     1
  2
*U24
 10
0.0
 20
0.0
 30
0.0
  0
ENDBLK
  5
26E
  8
0
  0
BLOCK
  8
0
 62
     1
  2
*U23
 70
     1
 10
0.0
 20
0.0
 30
0.0
  3
*U23
  1

  0
TEXT
  5
1BF0
  8
0
 62
     0
 10
-0.7375298233000001
 20
0.0875180066
 30
0.0
 40
0.1
  1
HOLE FOR
 41
0.75
  7
SLDTEXTSTYLE2
  0
ENDBLK
  5
1BF2
  8
0
 62
     1
  0
BLOCK
  8
0
 62
     1
  2
*U24
 70
     1
 10
0.0
 20
0.0
 30
0.0
  3
*U24
  1

  0
TEXT
  5
1BF4
  8
0
 62
     0
 10
-0.8657589599000001
 20
-0.0518520792000001
 30
0.0
 40
0.1
  1
#8-32 SCREW
 41
0.75
  7
SLDTEXTSTYLE2
  0
ENDBLK
  5
1BF6
  8
0
 62
     1
  0
BLOCK
  8
0
  2
SW_CENTERMARKSYMBOL_0
 70
     0
 10
0.0
 20
0.0
 30
0.0
  3
SW_CENTERMARKSYMBOL_0
  1

  0
LINE
  5
271
  8
0
  6
CONTINUOUS
 62
     0
 10
0.0
 20
0.0
 30
0.0
 11
0.0
 21
0.05
 31
0.0
  0
LINE
  5
272
  8
0
  6
CONTINUOUS
 62
     0
 10
0.0
 20
0.0
 30
0.0
 11
-0.05
 21
0.0
 31
0.0
  0
LINE
  5
273
  8
0
  6
CONTINUOUS
 62
     0
 10
0.0
 20
0.0
 30
0.0
 11
0.0
 21
-0.05
 31
0.0
  0
LINE
  5
274
  8
0
  6
CONTINUOUS
 62
     0
 10
0.0
 20
0.0
 30
0.0
 11
0.05
 21
0.0
 31
0.0
  0
LINE
  5
275
  8
0
  6
CONTINUOUS
 62
     0
 10
0.0
 20
0.1
 30
0.0
 11
0.0
 21
0.133
 31
0.0
  0
LINE
  5
276
  8
0
  6
CONTINUOUS
 62
     0
 10
-0.1
 20
0.0
 30
0.0
 11
-0.133
 21
0.0
 31
0.0
  0
LINE
  5
277
  8
0
  6
CONTINUOUS
 62
     0
 10
0.0
 20
-0.1
 30
0.0
 11
0.0
 21
-0.133
 31
0.0
  0
LINE
  5
278
  8
0
  6
CONTINUOUS
 62
     0
 10
4.4674437091000003
 20
0.0
 30
0.0
 11
4.4674437091000003
 21
0.05
 31
0.0
  0
LINE
  5
279
  8
0
  6
CONTINUOUS
 62
     0
 10
4.4674437091000003
 20
0.0
 30
0.0
 11
4.4174437090999987
 21
0.0
 31
0.0
  0
LINE
  5
27A
  8
0
  6
CONTINUOUS
 62
     0
 10
4.4674437091000003
 20
0.0
 30
0.0
 11
4.4674437091000003
 21
-0.05
 31
0.0
  0
LINE
  5
27B
  8
0
  6
CONTINUOUS
 62
     0
 10
4.4674437091000003
 20
0.0
 30
0.0
 11
4.5174437091000001
 21
0.0
 31
0.0
  0
LINE
  5
27C
  8
0
  6
CONTINUOUS
 62
     0
 10
4.4674437091000003
 20
0.1
 30
0.0
 11
4.4674437091000003
 21
0.133
 31
0.0
  0
LINE
  5
27D
  8
0
  6
CONTINUOUS
 62
     0
 10
4.4674437091000003
 20
-0.1
 30
0.0
 11
4.4674437091000003
 21
-0.133
 31
0.0
  0
LINE
  5
27E
  8
0
  6
CONTINUOUS
 62
     0
 10
4.5674437090999991
 20
0.0
 30
0.0
 11
4.6004437091000003
 21
0.0
 31
0.0
  0
LINE
  5
27F
  8
0
  6
CONTINUOUS
 62
     0
 10
1.046221854499999
 20
1.6937218544999979
 30
0.0
 11
1.046221854499999
 21
1.7437218544999991
 31
0.0
  0
LINE
  5
280
  8
0
  6
CONTINUOUS
 62
     0
 10
1.046221854499999
 20
1.6937218544999979
 30
0.0
 11
0.9962218545
 21
1.6937218544999979
 31
0.0
  0
LINE
  5
281
  8
0
  6
CONTINUOUS
 62
     0
 10
1.046221854499999
 20
1.6937218544999979
 30
0.0
 11
1.046221854499999
 21
1.6437218544999981
 31
0.0
  0
LINE
  5
282
  8
0
  6
CONTINUOUS
 62
     0
 10
1.046221854499999
 20
1.6937218544999979
 30
0.0
 11
1.0962218544999991
 21
1.6937218544999979
 31
0.0
  0
LINE
  5
283
  8
0
  6
CONTINUOUS
 62
     0
 10
1.046221854499999
 20
1.7937218545
 30
0.0
 11
1.046221854499999
 21
1.8267218544999979
 31
0.0
  0
LINE
  5
284
  8
0
  6
CONTINUOUS
 62
     0
 10
0.9462218545
 20
1.6937218544999979
 30
0.0
 11
0.9132218545
 21
1.6937218544999979
 31
0.0
  0
LINE
  5
285
  8
0
  6
CONTINUOUS
 62
     0
 10
3.4212218544999979
 20
1.6937218544999979
 30
0.0
 11
3.4212218544999979
 21
1.7437218544999991
 31
0.0
  0
LINE
  5
286
  8
0
  6
CONTINUOUS
 62
     0
 10
3.4212218544999979
 20
1.6937218544999979
 30
0.0
 11
3.3712218544999981
 21
1.6937218544999979
 31
0.0
  0
LINE
  5
287
  8
0
  6
CONTINUOUS
 62
     0
 10
3.4212218544999979
 20
1.6937218544999979
 30
0.0
 11
3.4212218544999979
 21
1.6437218544999981
 31
0.0
  0
LINE
  5
288
  8
0
  6
CONTINUOUS
 62
     0
 10
3.4212218544999979
 20
1.6937218544999979
 30
0.0
 11
3.4712218544999991
 21
1.6937218544999979
 31
0.0
  0
LINE
  5
289
  8
0
  6
CONTINUOUS
 62
     0
 10
3.4212218544999979
 20
1.7937218545
 30
0.0
 11
3.4212218544999979
 21
1.8267218544999979
 31
0.0
  0
LINE
  5
28A
  8
0
  6
CONTINUOUS
 62
     0
 10
3.521221854499998
 20
1.6937218544999979
 30
0.0
 11
3.5542218544999979
 21
1.6937218544999979
 31
0.0
  0
LINE
  5
28B
  8
0
  6
CONTINUOUS
 62
     0
 10
1.046221854499999
 20
-1.6937218544999979
 30
0.0
 11
1.046221854499999
 21
-1.6437218544999981
 31
0.0
  0
LINE
  5
28C
  8
0
  6
CONTINUOUS
 62
     0
 10
1.046221854499999
 20
-1.6937218544999979
 30
0.0
 11
0.9962218545
 21
-1.6937218544999979
 31
0.0
  0
LINE
  5
28D
  8
0
  6
CONTINUOUS
 62
     0
 10
1.046221854499999
 20
-1.6937218544999979
 30
0.0
 11
1.046221854499999
 21
-1.7437218544999991
 31
0.0
  0
LINE
  5
28E
  8
0
  6
CONTINUOUS
 62
     0
 10
1.046221854499999
 20
-1.6937218544999979
 30
0.0
 11
1.0962218544999991
 21
-1.6937218544999979
 31
0.0
  0
LINE
  5
28F
  8
0
  6
CONTINUOUS
 62
     0
 10
0.9462218545
 20
-1.6937218544999979
 30
0.0
 11
0.9132218545
 21
-1.6937218544999979
 31
0.0
  0
LINE
  5
290
  8
0
  6
CONTINUOUS
 62
     0
 10
1.046221854499999
 20
-1.7937218545
 30
0.0
 11
1.046221854499999
 21
-1.8267218544999979
 31
0.0
  0
LINE
  5
291
  8
0
  6
CONTINUOUS
 62
     0
 10
3.4212218544999979
 20
-1.6937218544999979
 30
0.0
 11
3.4212218544999979
 21
-1.6437218544999981
 31
0.0
  0
LINE
  5
292
  8
0
  6
CONTINUOUS
 62
     0
 10
3.4212218544999979
 20
-1.6937218544999979
 30
0.0
 11
3.3712218544999981
 21
-1.6937218544999979
 31
0.0
  0
LINE
  5
293
  8
0
  6
CONTINUOUS
 62
     0
 10
3.4212218544999979
 20
-1.6937218544999979
 30
0.0
 11
3.4212218544999979
 21
-1.7437218544999991
 31
0.0
  0
LINE
  5
294
  8
0
  6
CONTINUOUS
 62
     0
 10
3.4212218544999979
 20
-1.6937218544999979
 30
0.0
 11
3.4712218544999991
 21
-1.6937218544999979
 31
0.0
  0
LINE
  5
295
  8
0
  6
CONTINUOUS
 62
     0
 10
3.4212218544999979
 20
-1.7937218545
 30
0.0
 11
3.4212218544999979
 21
-1.8267218544999979
 31
0.0
  0
LINE
  5
296
  8
0
  6
CONTINUOUS
 62
     0
 10
3.521221854499998
 20
-1.6937218544999979
 30
0.0
 11
3.5542218544999979
 21
-1.6937218544999979
 31
0.0
  0
LINE
  5
297
  8
0
  6
CENTERX2
 62
     0
 10
0.1
 20
0.0
 30
0.0
 11
4.3674437090999989
 21
0.0
 31
0.0
  0
LINE
  5
298
  8
0
  6
CENTERX2
 62
     0
 10
1.1462218545
 20
1.6937218544999979
 30
0.0
 11
3.3212218545000001
 21
1.6937218544999979
 31
0.0
  0
LINE
  5
299
  8
0
  6
CENTERX2
 62
     0
 10
1.046221854499999
 20
-1.593721854499998
 30
0.0
 11
1.046221854499999
 21
1.593721854499998
 31
0.0
  0
LINE
  5
29A
  8
0
  6
CENTERX2
 62
     0
 10
1.1462218545
 20
-1.6937218544999979
 30
0.0
 11
3.3212218545000001
 21
-1.6937218544999979
 31
0.0
  0
LINE
  5
29B
  8
0
  6
CENTERX2
 62
     0
 10
3.4212218544999979
 20
-1.593721854499998
 30
0.0
 11
3.4212218544999979
 21
1.593721854499998
 31
0.0
  0
ENDBLK
  5
29C
  8
0
  0
BLOCK
  8
0
  2
*D26
 70
     1
 10
0.0
 20
0.0
 30
0.0
  3
*D26
  1

  0
LINE
  5
47C
  8
0
  6
CONTINUOUS
 62
     0
 10
1.7177542340046941
 20
8.7458388822794184
 30
0.0
 11
0.0554117144046983
 21
8.7458388822794184
 31
0.0
  0
LINE
  5
47D
  8
0
  6
CONTINUOUS
 62
     0
 10
1.7177542340046941
 20
1.4058388822794179
 30
0.0
 11
0.0554117144046967
 21
1.4058388822794179
 31
0.0
  0
LINE
  5
47E
  8
0
  6
CONTINUOUS
 62
     0
 10
0.0554117144046982
 20
8.667838882279419
 30
0.0
 11
0.0554117144046975
 21
5.1508388822794204
 31
0.0
  0
LINE
  5
47F
  8
0
  6
CONTINUOUS
 62
     0
 10
0.0554117144046966
 20
1.4838388822794191
 30
0.0
 11
0.0554117144046974
 21
5.0008388822794201
 31
0.0
  0
SOLID
  5
480
  8
0
  6
CONTINUOUS
 62
     0
 10
0.0424117144046982
 20
8.667838882279419
 30
0.0
 11
0.0684117144046982
 21
8.667838882279419
 31
0.0
 12
0.0554117144046983
 22
8.7458388822794184
 32
0.0
 13
0.0554117144046983
 23
8.7458388822794184
 33
0.0
  0
SOLID
  5
481
  8
0
  6
CONTINUOUS
 62
     0
 10
0.0424117144046966
 20
1.4838388822794191
 30
0.0
 11
0.0684117144046966
 21
1.4838388822794191
 31
0.0
 12
0.0554117144046966
 22
1.4058388822794179
 32
0.0
 13
0.0554117144046966
 23
1.4058388822794179
 33
0.0
  0
INSERT
  5
482
  8
0
 62
     1
  2
*U27
 10
0.0
 20
0.0
 30
0.0
  0
POINT
  5
483
  8
DEFPOINTS
  6
CONTINUOUS
 62
     0
 10
1.7802542340046941
 20
8.7458388822794184
 30
0.0
  0
POINT
  5
484
  8
DEFPOINTS
  6
CONTINUOUS
 62
     0
 10
1.7802542340046941
 20
1.4058388822794179
 30
0.0
  0
POINT
  5
485
  8
DEFPOINTS
  6
CONTINUOUS
 62
     0
 10
0.0554117144046966
 20
1.4058388822794179
 30
0.0
  0
ENDBLK
  5
2E3
  8
0
  0
BLOCK
  8
0
 62
     1
  2
*U27
 70
     1
 10
0.0
 20
0.0
 30
0.0
  3
*U27
  1

  0
TEXT
  5
1C08
  8
0
 62
     0
 10
-0.1133382855953034
 20
5.0258388822794204
 30
0.0
 40
0.1
  1
14.680
 41
0.75
  7
SLDTEXTSTYLE2
  0
ENDBLK
  5
1C0A
  8
0
 62
     1
  0
BLOCK
  8
0
  2
*D28
 70
     1
 10
0.0
 20
0.0
 30
0.0
  3
*D28
  1

  0
LINE
  5
3D7
  8
0
  6
CONTINUOUS
 62
     0
 10
8.3953311957492858
 20
4.3587679334622393
 30
0.0
 11
8.3953311957492858
 21
6.0211104530622404
 31
0.0
  0
LINE
  5
3D8
  8
0
  6
CONTINUOUS
 62
     0
 10
17.895331195749279
 20
4.3587679334622393
 30
0.0
 11
17.895331195749279
 21
6.0211104530622404
 31
0.0
  0
LINE
  5
3D9
  8
0
  6
CONTINUOUS
 62
     0
 10
8.4733311957492852
 20
6.0211104530622404
 30
0.0
 11
12.96408119574928
 21
6.0211104530622404
 31
0.0
  0
LINE
  5
3DA
  8
0
  6
CONTINUOUS
 62
     0
 10
17.817331195749279
 20
6.0211104530622404
 30
0.0
 11
13.326581195749281
 21
6.0211104530622404
 31
0.0
  0
SOLID
  5
3DB
  8
0
  6
CONTINUOUS
 62
     0
 10
8.4733311957492852
 20
6.0341104530622403
 30
0.0
 11
8.4733311957492852
 21
6.0081104530622387
 31
0.0
 12
8.3953311957492858
 22
6.0211104530622404
 32
0.0
 13
8.3953311957492858
 23
6.0211104530622404
 33
0.0
  0
SOLID
  5
3DC
  8
0
  6
CONTINUOUS
 62
     0
 10
17.817331195749279
 20
6.0341104530622403
 30
0.0
 11
17.817331195749279
 21
6.0081104530622387
 31
0.0
 12
17.895331195749279
 22
6.0211104530622404
 32
0.0
 13
17.895331195749279
 23
6.0211104530622404
 33
0.0
  0
INSERT
  5
3DD
  8
0
 62
     1
  2
*U29
 10
0.0
 20
0.0
 30
0.0
  0
POINT
  5
3DE
  8
DEFPOINTS
  6
CONTINUOUS
 62
     0
 10
8.3953311957492858
 20
4.2962679334622393
 30
0.0
  0
POINT
  5
3DF
  8
DEFPOINTS
  6
CONTINUOUS
 62
     0
 10
17.895331195749279
 20
4.2962679334622393
 30
0.0
  0
POINT
  5
3E0
  8
DEFPOINTS
  6
CONTINUOUS
 62
     0
 10
17.895331195749279
 20
6.0211104530622404
 30
0.0
  0
ENDBLK
  5
2F0
  8
0
  0
BLOCK
  8
0
 62
     1
  2
*U29
 70
     1
 10
0.0
 20
0.0
 30
0.0
  3
*U29
  1

  0
TEXT
  5
1C04
  8
0
 62
     0
 10
12.98908119574928
 20
5.9711104530622388
 30
0.0
 40
0.1
  1
19.000
 41
0.75
  7
SLDTEXTSTYLE2
  0
ENDBLK
  5
1C06
  8
0
 62
     1
  0
BLOCK
  8
0
  2
*D30
 70
     1
 10
0.0
 20
0.0
 30
0.0
  3
*D30
  1

  0
LINE
  5
486
  8
0
  6
CONTINUOUS
 62
     0
 10
1.3152542340046971
 20
1.80833888227942
 30
0.0
 11
1.3152542340046971
 21
0.6184373072794199
 31
0.0
  0
LINE
  5
487
  8
0
  6
CONTINUOUS
 62
     0
 10
1.597810525004695
 20
5.0133388822794203
 30
0.0
 11
1.597810525004695
 21
0.6184373072794199
 31
0.0
  0
LINE
  5
488
  8
0
  6
CONTINUOUS
 62
     0
 10
1.6758105250046951
 20
0.6184373072794199
 30
0.0
 11
1.753810525004696
 21
0.6184373072794199
 31
0.0
  0
LINE
  5
489
  8
0
  6
CONTINUOUS
 62
     0
 10
1.237254234004697
 20
0.6184373072794199
 30
0.0
 11
0.6511681208046971
 21
0.6184373072794199
 31
0.0
  0
LINE
  5
48A
  8
0
  6
CONTINUOUS
 62
     0
 10
1.597810525004695
 20
0.6184373072794199
 30
0.0
 11
1.3152542340046971
 21
0.6184373072794199
 31
0.0
  0
SOLID
  5
48B
  8
0
  6
CONTINUOUS
 62
     0
 10
1.6758105250046951
 20
0.6314373072794198
 30
0.0
 11
1.6758105250046951
 21
0.60543730727942
 31
0.0
 12
1.597810525004695
 22
0.6184373072794199
 32
0.0
 13
1.597810525004695
 23
0.6184373072794199
 33
0.0
  0
SOLID
  5
48C
  8
0
  6
CONTINUOUS
 62
     0
 10
1.237254234004697
 20
0.6314373072794198
 30
0.0
 11
1.237254234004697
 21
0.60543730727942
 31
0.0
 12
1.3152542340046971
 22
0.6184373072794199
 32
0.0
 13
1.3152542340046971
 23
0.6184373072794199
 33
0.0
  0
INSERT
  5
48D
  8
0
 62
     1
  2
*U31
 10
0.0
 20
0.0
 30
0.0
  0
POINT
  5
48E
  8
DEFPOINTS
  6
CONTINUOUS
 62
     0
 10
1.3152542340046971
 20
1.87083888227942
 30
0.0
  0
POINT
  5
48F
  8
DEFPOINTS
  6
CONTINUOUS
 62
     0
 10
1.597810525004695
 20
5.0758388822794203
 30
0.0
  0
POINT
  5
490
  8
DEFPOINTS
  6
CONTINUOUS
 62
     0
 10
1.597810525004695
 20
0.6184373072794199
 30
0.0
  0
ENDBLK
  5
2FD
  8
0
  0
BLOCK
  8
0
 62
     1
  2
*U31
 70
     1
 10
0.0
 20
0.0
 30
0.0
  3
*U31
  1

  0
TEXT
  5
1C0C
  8
0
 62
     0
 10
0.4011681208046971
 20
0.5684373072794199
 30
0.0
 40
0.1
  1
.565
 41
0.75
  7
SLDTEXTSTYLE2
  0
ENDBLK
  5
1C0E
  8
0
 62
     1
  0
BLOCK
  8
0
  2
*D32
 70
     1
 10
0.0
 20
0.0
 30
0.0
  3
*D32
  1

  0
LINE
  5
491
  8
0
  6
CONTINUOUS
 62
     0
 10
8.4402542340046978
 20
1.6258951730794191
 30
0.0
 11
8.4402542340046978
 21
0.6234373072794197
 31
0.0
  0
LINE
  5
492
  8
0
  6
CONTINUOUS
 62
     0
 10
3.690254234004696
 20
1.6258951730794191
 30
0.0
 11
3.690254234004696
 21
0.6234373072794197
 31
0.0
  0
LINE
  5
493
  8
0
  6
CONTINUOUS
 62
     0
 10
8.3622542340046984
 20
0.6234373072794197
 30
0.0
 11
6.2277542340046974
 21
0.6234373072794197
 31
0.0
  0
LINE
  5
494
  8
0
  6
CONTINUOUS
 62
     0
 10
3.7682542340046958
 20
0.6234373072794197
 30
0.0
 11
5.9027542340046972
 21
0.6234373072794197
 31
0.0
  0
SOLID
  5
495
  8
0
  6
CONTINUOUS
 62
     0
 10
8.3622542340046984
 20
0.6364373072794197
 30
0.0
 11
8.3622542340046984
 21
0.6104373072794198
 31
0.0
 12
8.4402542340046978
 22
0.6234373072794197
 32
0.0
 13
8.4402542340046978
 23
0.6234373072794197
 33
0.0
  0
SOLID
  5
496
  8
0
  6
CONTINUOUS
 62
     0
 10
3.7682542340046958
 20
0.6364373072794197
 30
0.0
 11
3.7682542340046958
 21
0.6104373072794198
 31
0.0
 12
3.690254234004696
 22
0.6234373072794197
 32
0.0
 13
3.690254234004696
 23
0.6234373072794197
 33
0.0
  0
INSERT
  5
497
  8
0
 62
     1
  2
*U33
 10
0.0
 20
0.0
 30
0.0
  0
POINT
  5
498
  8
DEFPOINTS
  6
CONTINUOUS
 62
     0
 10
8.4402542340046978
 20
1.6883951730794191
 30
0.0
  0
POINT
  5
499
  8
DEFPOINTS
  6
CONTINUOUS
 62
     0
 10
3.690254234004696
 20
1.6883951730794191
 30
0.0
  0
POINT
  5
49A
  8
DEFPOINTS
  6
CONTINUOUS
 62
     0
 10
3.690254234004696
 20
0.6234373072794197
 30
0.0
  0
ENDBLK
  5
30B
  8
0
  0
BLOCK
  8
0
 62
     1
  2
*U33
 70
     1
 10
0.0
 20
0.0
 30
0.0
  3
*U33
  1

  0
TEXT
  5
1C10
  8
0
 62
     0
 10
5.9277542340046958
 20
0.5734373072794198
 30
0.0
 40
0.1
  1
9.500
 41
0.75
  7
SLDTEXTSTYLE2
  0
ENDBLK
  5
1C12
  8
0
 62
     1
  0
BLOCK
  8
0
  2
*D34
 70
     1
 10
0.0
 20
0.0
 30
0.0
  3
*D34
  1

  0
LINE
  5
49B
  8
0
  6
CONTINUOUS
 62
     0
 10
10.53269794300469
 20
5.0133388822794203
 30
0.0
 11
10.53269794300469
 21
0.1509963624794199
 31
0.0
  0
LINE
  5
49C
  8
0
  6
CONTINUOUS
 62
     0
 10
1.597810525004695
 20
5.0133388822794203
 30
0.0
 11
1.597810525004695
 21
0.1509963624794199
 31
0.0
  0
LINE
  5
49D
  8
0
  6
CONTINUOUS
 62
     0
 10
10.454697943004691
 20
0.1509963624794199
 30
0.0
 11
6.2277542340046974
 21
0.1509963624794199
 31
0.0
  0
LINE
  5
49E
  8
0
  6
CONTINUOUS
 62
     0
 10
1.6758105250046951
 20
0.1509963624794199
 30
0.0
 11
5.9027542340046972
 21
0.1509963624794199
 31
0.0
  0
SOLID
  5
49F
  8
0
  6
CONTINUOUS
 62
     0
 10
10.454697943004691
 20
0.16399636247942
 30
0.0
 11
10.454697943004691
 21
0.1379963624794199
 31
0.0
 12
10.53269794300469
 22
0.1509963624794199
 32
0.0
 13
10.53269794300469
 23
0.1509963624794199
 33
0.0
  0
SOLID
  5
4A0
  8
0
  6
CONTINUOUS
 62
     0
 10
1.6758105250046951
 20
0.16399636247942
 30
0.0
 11
1.6758105250046951
 21
0.1379963624794199
 31
0.0
 12
1.597810525004695
 22
0.1509963624794199
 32
0.0
 13
1.597810525004695
 23
0.1509963624794199
 33
0.0
  0
INSERT
  5
4A1
  8
0
 62
     1
  2
*U35
 10
0.0
 20
0.0
 30
0.0
  0
POINT
  5
4A2
  8
DEFPOINTS
  6
CONTINUOUS
 62
     0
 10
10.53269794300469
 20
5.0758388822794203
 30
0.0
  0
POINT
  5
4A3
  8
DEFPOINTS
  6
CONTINUOUS
 62
     0
 10
1.597810525004695
 20
5.0758388822794203
 30
0.0
  0
POINT
  5
4A4
  8
DEFPOINTS
  6
CONTINUOUS
 62
     0
 10
1.597810525004695
 20
0.1509963624794199
 30
0.0
  0
ENDBLK
  5
318
  8
0
  0
BLOCK
  8
0
 62
     1
  2
*U35
 70
     1
 10
0.0
 20
0.0
 30
0.0
  3
*U35
  1

  0
TEXT
  5
1C14
  8
0
 62
     0
 10
5.9277542340046958
 20
0.1009963624794199
 30
0.0
 40
0.1
  1
17.87
 41
0.75
  7
SLDTEXTSTYLE2
  0
ENDBLK
  5
1C16
  8
0
 62
     1
  0
BLOCK
  8
0
  2
*D36
 70
     1
 10
0.0
 20
0.0
 30
0.0
  3
*D36
  1

  0
LINE
  5
4A5
  8
0
  6
CONTINUOUS
 62
     0
 10
10.412754234004691
 20
1.4058388822794179
 30
0.0
 11
11.818155808804701
 21
1.405838882279417
 31
0.0
  0
LINE
  5
4A6
  8
0
  6
CONTINUOUS
 62
     0
 10
8.5027542340046978
 20
1.688395173079418
 30
0.0
 11
11.818155808804701
 21
1.688395173079418
 31
0.0
  0
LINE
  5
4A7
  8
0
  6
CONTINUOUS
 62
     0
 10
11.818155808804701
 20
1.7663951730794181
 30
0.0
 11
11.818155808804701
 21
1.844395173079417
 31
0.0
  0
LINE
  5
4A8
  8
0
  6
CONTINUOUS
 62
     0
 10
11.818155808804701
 20
1.327838882279418
 30
0.0
 11
11.818155808804701
 21
0.9897255098794175
 31
0.0
  0
LINE
  5
4A9
  8
0
  6
CONTINUOUS
 62
     0
 10
11.818155808804701
 20
0.9897255098794175
 30
0.0
 11
11.740155808804699
 21
0.9897255098794175
 31
0.0
  0
LINE
  5
4AA
  8
0
  6
CONTINUOUS
 62
     0
 10
11.818155808804701
 20
1.688395173079418
 30
0.0
 11
11.818155808804701
 21
1.405838882279417
 31
0.0
  0
SOLID
  5
4AB
  8
0
  6
CONTINUOUS
 62
     0
 10
11.805155808804701
 20
1.7663951730794181
 30
0.0
 11
11.8311558088047
 21
1.7663951730794181
 31
0.0
 12
11.818155808804701
 22
1.688395173079418
 32
0.0
 13
11.818155808804701
 23
1.688395173079418
 33
0.0
  0
SOLID
  5
4AC
  8
0
  6
CONTINUOUS
 62
     0
 10
11.805155808804701
 20
1.327838882279418
 30
0.0
 11
11.8311558088047
 21
1.327838882279418
 31
0.0
 12
11.818155808804701
 22
1.405838882279417
 32
0.0
 13
11.818155808804701
 23
1.405838882279417
 33
0.0
  0
INSERT
  5
4AD
  8
0
 62
     1
  2
*U37
 10
0.0
 20
0.0
 30
0.0
  0
POINT
  5
4AE
  8
DEFPOINTS
  6
CONTINUOUS
 62
     0
 10
10.3502542340047
 20
1.4058388822794179
 30
0.0
  0
POINT
  5
4AF
  8
DEFPOINTS
  6
CONTINUOUS
 62
     0
 10
8.4402542340046978
 20
1.6883951730794191
 30
0.0
  0
POINT
  5
4B0
  8
DEFPOINTS
  6
CONTINUOUS
 62
     0
 10
11.818155808804701
 20
1.688395173079418
 30
0.0
  0
ENDBLK
  5
325
  8
0
  0
BLOCK
  8
0
 62
     1
  2
*U37
 70
     1
 10
0.0
 20
0.0
 30
0.0
  3
*U37
  1

  0
TEXT
  5
1C18
  8
0
 62
     0
 10
11.490155808804699
 20
0.9397255098794195
 30
0.0
 40
0.1
  1
.565
 41
0.75
  7
SLDTEXTSTYLE2
  0
ENDBLK
  5
1C1A
  8
0
 62
     1
  0
BLOCK
  8
0
  2
*D38
 70
     1
 10
0.0
 20
0.0
 30
0.0
  3
*D38
  1

  0
LINE
  5
4B1
  8
0
  6
CONTINUOUS
 62
     0
 10
8.5027542340046978
 20
1.688395173079418
 30
0.0
 11
12.0700967536047
 21
1.688395173079418
 31
0.0
  0
LINE
  5
4B2
  8
0
  6
CONTINUOUS
 62
     0
 10
8.5027542340046978
 20
8.4632825912794196
 30
0.0
 11
12.0700967536047
 21
8.4632825912794178
 31
0.0
  0
LINE
  5
4B3
  8
0
  6
CONTINUOUS
 62
     0
 10
12.0700967536047
 20
1.7663951730794181
 30
0.0
 11
12.0700967536047
 21
5.0008388822794174
 31
0.0
  0
LINE
  5
4B4
  8
0
  6
CONTINUOUS
 62
     0
 10
12.0700967536047
 20
8.3852825912794184
 30
0.0
 11
12.0700967536047
 21
5.1508388822794169
 31
0.0
  0
SOLID
  5
4B5
  8
0
  6
CONTINUOUS
 62
     0
 10
12.0570967536047
 20
1.7663951730794181
 30
0.0
 11
12.0830967536047
 21
1.7663951730794181
 31
0.0
 12
12.0700967536047
 22
1.688395173079418
 32
0.0
 13
12.0700967536047
 23
1.688395173079418
 33
0.0
  0
SOLID
  5
4B6
  8
0
  6
CONTINUOUS
 62
     0
 10
12.0570967536047
 20
8.3852825912794184
 30
0.0
 11
12.0830967536047
 21
8.3852825912794184
 31
0.0
 12
12.0700967536047
 22
8.4632825912794178
 32
0.0
 13
12.0700967536047
 23
8.4632825912794178
 33
0.0
  0
INSERT
  5
4B7
  8
0
 62
     1
  2
*U39
 10
0.0
 20
0.0
 30
0.0
  0
POINT
  5
4B8
  8
DEFPOINTS
  6
CONTINUOUS
 62
     0
 10
8.4402542340046978
 20
1.6883951730794191
 30
0.0
  0
POINT
  5
4B9
  8
DEFPOINTS
  6
CONTINUOUS
 62
     0
 10
8.4402542340046978
 20
8.4632825912794196
 30
0.0
  0
POINT
  5
4BA
  8
DEFPOINTS
  6
CONTINUOUS
 62
     0
 10
12.0700967536047
 20
8.4632825912794178
 30
0.0
  0
ENDBLK
  5
334
  8
0
  0
BLOCK
  8
0
 62
     1
  2
*U39
 70
     1
 10
0.0
 20
0.0
 30
0.0
  3
*U39
  1

  0
TEXT
  5
1C1C
  8
0
 62
     0
 10
11.932596753604701
 20
5.0258388822794204
 30
0.0
 40
0.1
  1
13.55
 41
0.75
  7
SLDTEXTSTYLE2
  0
ENDBLK
  5
1C1E
  8
0
 62
     1
  0
BLOCK
  8
0
  2
*D40
 70
     1
 10
0.0
 20
0.0
 30
0.0
  3
*D40
  1

  0
LINE
  5
4BB
  8
0
  6
CONTINUOUS
 62
     0
 10
8.5027542340046978
 20
1.688395173079418
 30
0.0
 11
11.59765580880469
 21
1.688395173079418
 31
0.0
  0
LINE
  5
4BC
  8
0
  6
CONTINUOUS
 62
     0
 10
10.59519794300469
 20
5.0758388822794203
 30
0.0
 11
11.597655808804699
 21
5.0758388822794203
 31
0.0
  0
LINE
  5
4BD
  8
0
  6
CONTINUOUS
 62
     0
 10
11.59765580880469
 20
1.7663951730794181
 30
0.0
 11
11.59765580880469
 21
3.3071170276794151
 31
0.0
  0
LINE
  5
4BE
  8
0
  6
CONTINUOUS
 62
     0
 10
11.597655808804699
 20
4.9978388822794191
 30
0.0
 11
11.59765580880469
 21
3.4571170276794159
 31
0.0
  0
SOLID
  5
4BF
  8
0
  6
CONTINUOUS
 62
     0
 10
11.58465580880469
 20
1.7663951730794181
 30
0.0
 11
11.61065580880469
 21
1.7663951730794181
 31
0.0
 12
11.59765580880469
 22
1.688395173079418
 32
0.0
 13
11.59765580880469
 23
1.688395173079418
 33
0.0
  0
SOLID
  5
4C0
  8
0
  6
CONTINUOUS
 62
     0
 10
11.584655808804699
 20
4.9978388822794191
 30
0.0
 11
11.61065580880469
 21
4.9978388822794191
 31
0.0
 12
11.597655808804699
 22
5.0758388822794203
 32
0.0
 13
11.597655808804699
 23
5.0758388822794203
 33
0.0
  0
INSERT
  5
4C1
  8
0
 62
     1
  2
*U41
 10
0.0
 20
0.0
 30
0.0
  0
POINT
  5
4C2
  8
DEFPOINTS
  6
CONTINUOUS
 62
     0
 10
8.4402542340046978
 20
1.6883951730794191
 30
0.0
  0
POINT
  5
4C3
  8
DEFPOINTS
  6
CONTINUOUS
 62
     0
 10
10.53269794300469
 20
5.0758388822794203
 30
0.0
  0
POINT
  5
4C4
  8
DEFPOINTS
  6
CONTINUOUS
 62
     0
 10
11.597655808804699
 20
5.0758388822794203
 30
0.0
  0
ENDBLK
  5
341
  8
0
  0
BLOCK
  8
0
 62
     1
  2
*U41
 70
     1
 10
0.0
 20
0.0
 30
0.0
  3
*U41
  1

  0
TEXT
  5
1C20
  8
0
 62
     0
 10
11.44765580880469
 20
3.3321170276794181
 30
0.0
 40
0.1
  1
6.775
 41
0.75
  7
SLDTEXTSTYLE2
  0
ENDBLK
  5
1C22
  8
0
 62
     1
  0
BLOCK
  8
0
  2
*D42
 70
     1
 10
0.0
 20
0.0
 30
0.0
  3
*D42
  1

  0
LINE
  5
4C5
  8
0
  6
CONTINUOUS
 62
     0
 10
1.597810525004695
 20
5.0133388822794203
 30
0.0
 11
1.597810525004695
 21
0.6234373072794197
 31
0.0
  0
LINE
  5
4C6
  8
0
  6
CONTINUOUS
 62
     0
 10
3.690254234004696
 20
1.6258951730794191
 30
0.0
 11
3.690254234004696
 21
0.6234373072794197
 31
0.0
  0
LINE
  5
4C7
  8
0
  6
CONTINUOUS
 62
     0
 10
1.6758105250046951
 20
0.6234373072794197
 30
0.0
 11
2.481532379404698
 21
0.6234373072794197
 31
0.0
  0
LINE
  5
4C8
  8
0
  6
CONTINUOUS
 62
     0
 10
3.6122542340046961
 20
0.6234373072794197
 30
0.0
 11
2.8065323794046981
 21
0.6234373072794197
 31
0.0
  0
SOLID
  5
4C9
  8
0
  6
CONTINUOUS
 62
     0
 10
1.6758105250046951
 20
0.6364373072794197
 30
0.0
 11
1.6758105250046951
 21
0.6104373072794198
 31
0.0
 12
1.597810525004695
 22
0.6234373072794197
 32
0.0
 13
1.597810525004695
 23
0.6234373072794197
 33
0.0
  0
SOLID
  5
4CA
  8
0
  6
CONTINUOUS
 62
     0
 10
3.6122542340046961
 20
0.6364373072794197
 30
0.0
 11
3.6122542340046961
 21
0.6104373072794198
 31
0.0
 12
3.690254234004696
 22
0.6234373072794197
 32
0.0
 13
3.690254234004696
 23
0.6234373072794197
 33
0.0
  0
INSERT
  5
4CB
  8
0
 62
     1
  2
*U43
 10
0.0
 20
0.0
 30
0.0
  0
POINT
  5
4CC
  8
DEFPOINTS
  6
CONTINUOUS
 62
     0
 10
1.597810525004695
 20
5.0758388822794203
 30
0.0
  0
POINT
  5
4CD
  8
DEFPOINTS
  6
CONTINUOUS
 62
     0
 10
3.690254234004696
 20
1.6883951730794191
 30
0.0
  0
POINT
  5
4CE
  8
DEFPOINTS
  6
CONTINUOUS
 62
     0
 10
3.690254234004696
 20
0.6234373072794197
 30
0.0
  0
ENDBLK
  5
34E
  8
0
  0
BLOCK
  8
0
 62
     1
  2
*U43
 70
     1
 10
0.0
 20
0.0
 30
0.0
  3
*U43
  1

  0
TEXT
  5
1C24
  8
0
 62
     0
 10
2.506532379404697
 20
0.5734373072794198
 30
0.0
 40
0.1
  1
4.185
 41
0.75
  7
SLDTEXTSTYLE2
  0
ENDBLK
  5
1C26
  8
0
 62
     1
  0
BLOCK
  8
0
  2
*D44
 70
     1
 10
0.0
 20
0.0
 30
0.0
  3
*D44
  1

  0
LINE
  5
4CF
  8
0
  6
CONTINUOUS
 62
     0
 10
0.1478248924617311
 20
9.5332404570794154
 30
0.0
 11
0.6288248924617488
 21
9.5332404570794207
 31
0.0
  0
LINE
  5
4D0
  8
0
  6
CONTINUOUS
 62
     0
 10
0.6288248924617488
 20
9.5332404570794207
 30
0.0
 11
1.412747410580085
 21
8.6805734624230517
 31
0.0
  0
INSERT
  5
4D1
  8
0
 62
     1
  2
*U45
 10
0.0
 20
0.0
 30
0.0
  0
SOLID
  5
4D2
  8
0
  6
CONTINUOUS
 62
     0
 10
1.422317483404024
 20
8.6893719683271531
 30
0.0
 11
1.4031773377561481
 21
8.6717749565189468
 31
0.0
 12
1.4655384460047001
 22
8.6231530254794215
 32
0.0
 13
1.4655384460047001
 23
8.6231530254794215
 33
0.0
  0
POINT
  5
4D3
  8
DEFPOINTS
  6
CONTINUOUS
 62
     0
 10
1.4655384460047001
 20
8.6231530254794215
 30
0.0
  0
POINT
  5
4D4
  8
DEFPOINTS
  6
CONTINUOUS
 62
     0
 10
1.7802542340046961
 20
8.2808388822794168
 30
0.0
  0
ENDBLK
  5
35B
  8
0
  0
BLOCK
  8
0
 62
     1
  2
*U45
 70
     1
 10
0.0
 20
0.0
 30
0.0
  3
*U45
  1

  0
TEXT
  5
1C28
  8
0
 62
     0
 10
-0.3271751075382689
 20
9.4832404570794182
 30
0.0
 40
0.1
  1
4x R.93
 41
0.75
  7
SLDTEXTSTYLE2
  0
ENDBLK
  5
1C2A
  8
0
 62
     1
  0
BLOCK
  8
0
 62
     1
  2
*D46
 70
     1
 10
0.0
 20
0.0
 30
0.0
  3
*D46
  1

  0
LINE
  5
4D5
  8
0
 62
     0
 10
1.315254234004692
 20
8.3433388822794168
 30
0.0
 11
1.315254234004692
 21
11.057592968929461
 31
0.0
  0
LINE
  5
4D6
  8
0
 62
     0
 10
10.8152542340047
 20
8.3433388822794168
 30
0.0
 11
10.8152542340047
 21
11.057592968929461
 31
0.0
  0
LINE
  5
4D7
  8
0
 62
     0
 10
1.495254234004691
 20
10.877592968929459
 30
0.0
 11
5.6019322694753617
 21
10.877592968929459
 31
0.0
  0
LINE
  5
4D8
  8
0
 62
     0
 10
10.6352542340047
 20
10.877592968929459
 30
0.0
 11
6.5285761985340249
 21
10.877592968929459
 31
0.0
  0
SOLID
  5
4D9
  8
0
 62
     0
 10
1.495254234004691
 20
10.90759296892946
 30
0.0
 11
1.495254234004691
 21
10.84759296892946
 31
0.0
 12
1.315254234004692
 22
10.877592968929459
 32
0.0
 13
1.315254234004692
 23
10.877592968929459
 33
0.0
  0
SOLID
  5
4DA
  8
0
 62
     0
 10
10.6352542340047
 20
10.90759296892946
 30
0.0
 11
10.6352542340047
 21
10.84759296892946
 31
0.0
 12
10.8152542340047
 22
10.877592968929459
 32
0.0
 13
10.8152542340047
 23
10.877592968929459
 33
0.0
  0
INSERT
  5
4DB
  8
0
 62
     1
  2
*U47
 10
0.0
 20
0.0
 30
0.0
  0
POINT
  5
4DC
  8
DEFPOINTS
 62
     0
 10
1.315254234004692
 20
8.2808388822794168
 30
0.0
  0
POINT
  5
4DD
  8
DEFPOINTS
 62
     0
 10
10.8152542340047
 20
8.2808388822794168
 30
0.0
  0
POINT
  5
4DE
  8
DEFPOINTS
 62
     0
 10
10.8152542340047
 20
10.877592968929459
 30
0.0
  0
ENDBLK
  5
434
  8
0
 62
     1
  0
BLOCK
  8
0
 62
     1
  2
*U47
 70
     1
 10
0.0
 20
0.0
 30
0.0
  3
*U47
  1

  0
TEXT
  5
1C2C
  8
0
 62
     0
 10
5.6814957074016919
 20
10.7891277574697
 30
0.0
 40
0.18
  1
9.5000
  0
ENDBLK
  5
1C2E
  8
0
 62
     1
  0
BLOCK
  8
0
 62
     1
  2
*D48
 70
     1
 10
0.0
 20
0.0
 30
0.0
  3
*D48
  1

  0
LINE
  5
4F1
  8
0
 62
     0
 10
11.71726139012107
 20
9.2029769212801273
 30
0.0
 11
11.537261390121071
 21
9.2029769212801273
 31
0.0
  0
LINE
  5
4F2
  8
0
 62
     0
 10
11.537261390121071
 20
9.2029769212801273
 30
0.0
 11
10.85961294869159
 21
8.676539147344414
 31
0.0
  0
INSERT
  5
4F3
  8
0
 62
     1
  2
*U49
 10
0.0
 20
0.0
 30
0.0
  0
SOLID
  5
4F4
  8
0
 62
     0
 10
10.841208285200191
 20
8.7002302503531048
 30
0.0
 11
10.87801761218298
 21
8.6528480443357214
 31
0.0
 12
10.71746633063943
 22
8.5661111663960412
 32
0.0
 13
10.71746633063943
 23
8.5661111663960412
 33
0.0
  0
LINE
  5
4F5
  8
0
 62
     0
 10
10.2602542340047
 20
8.2808388822794168
 30
0.0
 11
10.4402542340047
 21
8.2808388822794168
 31
0.0
  0
LINE
  5
4F6
  8
0
 62
     0
 10
10.3502542340047
 20
8.1908388822794205
 30
0.0
 11
10.3502542340047
 21
8.3708388822794184
 31
0.0
  0
POINT
  5
4F7
  8
DEFPOINTS
 62
     0
 10
10.71746633063943
 20
8.5661111663960412
 30
0.0
  0
POINT
  5
4F8
  8
DEFPOINTS
 62
     0
 10
10.3502542340047
 20
8.2808388822794168
 30
0.0
  0
ENDBLK
  5
44F
  8
0
 62
     1
  0
BLOCK
  8
0
 62
     1
  2
*U49
 70
     1
 10
0.0
 20
0.0
 30
0.0
  3
*U49
  1

  0
TEXT
  5
1C34
  8
0
 62
     0
 10
11.78749331372271
 20
9.1145117098203716
 30
0.0
 40
0.18
  1
R0.4650
  0
ENDBLK
  5
1C36
  8
0
 62
     1
  0
BLOCK
  8
0
 62
     1
  2
*D50
 70
     1
 10
0.0
 20
0.0
 30
0.0
  3
*D50
  1

  0
LINE
  5
4E7
  8
0
 62
     0
 10
1.597810525004695
 20
5.1383388822794203
 30
0.0
 11
1.597810525004695
 21
5.778321909580157
 31
0.0
  0
LINE
  5
4E8
  8
0
 62
     0
 10
10.53269794320469
 20
5.1383388822794203
 30
0.0
 11
10.53269794320469
 21
5.778321909580157
 31
0.0
  0
LINE
  5
4E9
  8
0
 62
     0
 10
1.7778105250046961
 20
5.5983219095801564
 30
0.0
 11
5.6013183541592646
 21
5.5983219095801564
 31
0.0
  0
LINE
  5
4EA
  8
0
 62
     0
 10
10.35269794320469
 20
5.5983219095801564
 30
0.0
 11
6.5291901140501238
 21
5.5983219095801564
 31
0.0
  0
SOLID
  5
4EB
  8
0
 62
     0
 10
1.7778105250046961
 20
5.6283219095801558
 30
0.0
 11
1.7778105250046961
 21
5.568321909580157
 31
0.0
 12
1.597810525004695
 22
5.5983219095801564
 32
0.0
 13
1.597810525004695
 23
5.5983219095801564
 33
0.0
  0
SOLID
  5
4EC
  8
0
 62
     0
 10
10.35269794320469
 20
5.6283219095801558
 30
0.0
 11
10.35269794320469
 21
5.568321909580157
 31
0.0
 12
10.53269794320469
 22
5.5983219095801564
 32
0.0
 13
10.53269794320469
 23
5.5983219095801564
 33
0.0
  0
INSERT
  5
4ED
  8
0
 62
     1
  2
*U51
 10
0.0
 20
0.0
 30
0.0
  0
POINT
  5
4EE
  8
DEFPOINTS
 62
     0
 10
1.597810525004695
 20
5.0758388822794203
 30
0.0
  0
POINT
  5
4EF
  8
DEFPOINTS
 62
     0
 10
10.53269794320469
 20
5.0758388822794203
 30
0.0
  0
POINT
  5
4F0
  8
DEFPOINTS
 62
     0
 10
10.53269794320469
 20
5.5983219095801564
 30
0.0
  0
ENDBLK
  5
465
  8
0
 62
     1
  0
BLOCK
  8
0
 62
     1
  2
*U51
 70
     1
 10
0.0
 20
0.0
 30
0.0
  3
*U51
  1

  0
TEXT
  5
1C30
  8
0
 62
     0
 10
5.6811273582520361
 20
5.5099180896620119
 30
0.0
 40
0.18
  1
8.9349
  0
ENDBLK
  5
1C32
  8
0
 62
     1
  0
BLOCK
  8
0
 62
     1
  2
*D52
 70
     1
 10
0.0
 20
0.0
 30
0.0
  3
*D52
  1

  0
LINE
  5
1B73
  8
0
 62
     0
 10
3.323405960848953
 20
7.9100446826373316
 30
0.0
 11
3.143405960848952
 21
7.9100446826373316
 31
0.0
  0
LINE
  5
1B74
  8
0
 62
     0
 10
3.143405960848952
 20
7.9100446826373316
 30
0.0
 11
2.7984997805477669
 21
7.4967439504243147
 31
0.0
  0
INSERT
  5
1B75
  8
0
 62
     1
  2
*U53
 10
0.0
 20
0.0
 30
0.0
  0
SOLID
  5
1B76
  8
0
 62
     0
 10
2.7754665477216891
 20
7.5159655576822857
 30
0.0
 11
2.8215330133738461
 21
7.4775223431663429
 31
0.0
 12
2.6831701369999421
 22
7.3585445534678451
 32
0.0
 13
2.6831701369999421
 23
7.3585445534678451
 33
0.0
  0
LINE
  5
1B77
  8
0
 62
     0
 10
2.531180453592984
 20
7.284262377603743
 30
0.0
 11
2.7111804535929842
 21
7.284262377603743
 31
0.0
  0
LINE
  5
1B78
  8
0
 62
     0
 10
2.621180453592983
 20
7.194262377603744
 30
0.0
 11
2.6211804535929839
 21
7.3742623776037428
 31
0.0
  0
POINT
  5
1B79
  8
DEFPOINTS
 62
     0
 10
2.6831701369999421
 20
7.3585445534678451
 30
0.0
  0
POINT
  5
1B7A
  8
DEFPOINTS
 62
     0
 10
2.559190770186027
 20
7.2099802017396408
 30
0.0
  0
ENDBLK
  5
1B69
  8
0
 62
     1
  0
BLOCK
  8
0
 62
     1
  2
*U53
 70
     1
 10
0.0
 20
0.0
 30
0.0
  3
*U53
  1

  0
TEXT
  5
319A
  8
0
 62
     0
 10
3.4032149649417232
 20
7.8236667835923122
 30
0.0
 40
0.18
  1
Ø0.1935
  0
ENDBLK
  5
319C
  8
0
 62
     1
  0
BLOCK
  8
0
 62
     1
  2
*U54
 70
     1
 10
0.0
 20
0.0
 30
0.0
  3
*U54
  1

  0
SOLID
  5
1BF8
  8
0
  6
CONTINUOUS
 10
1.8774175272420981
 20
2.3950371931557091
 30
0.0
 11
1.9414032251521001
 21
2.4415004093914581
 31
0.0
 12
1.895945364827206
 22
2.376796600116561
 32
0.0
 13
1.895945364827206
 23
2.376796600116561
 33
0.0
  0
POLYLINE
  5
1BF9
  8
0
  6
CONTINUOUS
 66
     1
 10
0.0
 20
0.0
 30
0.0
  0
VERTEX
  5
3333
  8
0
  6
CONTINUOUS
 10
1.886681446034651
 20
2.3859168966361342
 30
0.0
  0
VERTEX
  5
3334
  8
0
  6
CONTINUOUS
 10
0.965758924052101
 20
1.4504921064914591
 30
0.0
  0
VERTEX
  5
3335
  8
0
  6
CONTINUOUS
 10
0.8657589240521005
 20
1.4504921064914591
 30
0.0
  0
SEQEND
  5
3336
  8
0
  6
CONTINUOUS
  0
ENDBLK
  5
1BFF
  8
0
 62
     1
  0
BLOCK
  8
0
 62
     1
  2
*D55
 70
     1
 10
0.0
 20
0.0
 30
0.0
  3
*D55
  1

  0
LINE
  5
3295
  8
0
 62
     0
 10
0.2461804535929802
 20
7.1643186686037419
 30
0.0
 11
0.2461804535929803
 21
8.4811074289797759
 31
0.0
  0
LINE
  5
3296
  8
0
 62
     0
 10
9.7461804535929861
 20
7.1643186686037419
 30
0.0
 11
9.7461804535929861
 21
8.4811074289797759
 31
0.0
  0
LINE
  5
3297
  8
0
 62
     0
 10
0.4261804535929804
 20
8.3011074289797762
 30
0.0
 11
4.5011804535929834
 21
8.3011074289797762
 31
0.0
  0
LINE
  5
3298
  8
0
 62
     0
 10
9.5661804535929864
 20
8.3011074289797762
 30
0.0
 11
5.4911804535929827
 21
8.3011074289797762
 31
0.0
  0
SOLID
  5
3299
  8
0
 62
     0
 10
0.4261804535929804
 20
8.3311074289797755
 30
0.0
 11
0.4261804535929804
 21
8.2711074289797768
 31
0.0
 12
0.2461804535929803
 22
8.3011074289797762
 32
0.0
 13
0.2461804535929803
 23
8.3011074289797762
 33
0.0
  0
SOLID
  5
329A
  8
0
 62
     0
 10
9.5661804535929864
 20
8.3311074289797755
 30
0.0
 11
9.5661804535929864
 21
8.2711074289797768
 31
0.0
 12
9.7461804535929861
 22
8.3011074289797762
 32
0.0
 13
9.7461804535929861
 23
8.3011074289797762
 33
0.0
  0
INSERT
  5
329B
  8
0
 62
     1
  2
*U65
 10
0.0
 20
0.0
 30
0.0
  0
POINT
  5
329C
  8
DEFPOINTS
 62
     0
 10
0.2461804535929802
 20
7.1018186686037419
 30
0.0
  0
POINT
  5
329D
  8
DEFPOINTS
 62
     0
 10
9.7461804535929861
 20
7.1018186686037419
 30
0.0
  0
POINT
  5
329E
  8
DEFPOINTS
 62
     0
 10
9.7461804535929861
 20
8.3011074289797762
 30
0.0
  0
ENDBLK
  5
3294
  8
0
 62
     1
  0
BLOCK
  8
0
 62
     1
  2
*D56
 70
     1
 10
0.0
 20
0.0
 30
0.0
  3
*D56
  1

  0
LINE
  5
32A3
  8
0
 62
     0
 10
9.3436804535929863
 20
0.2268186686037445
 30
0.0
 11
11.88905359710354
 21
0.2268186686037438
 31
0.0
  0
LINE
  5
32A4
  8
0
 62
     0
 10
9.3436804535929863
 20
7.5668186686037417
 30
0.0
 11
11.88905359710354
 21
7.5668186686037409
 31
0.0
  0
LINE
  5
32A5
  8
0
 62
     0
 10
11.709053597103541
 20
0.4068186686037438
 30
0.0
 11
11.709053597103541
 21
3.7168186686037421
 31
0.0
  0
LINE
  5
32A6
  8
0
 62
     0
 10
11.70905359710355
 20
7.386818668603742
 30
0.0
 11
11.70905359710355
 21
4.0768186686037424
 31
0.0
  0
SOLID
  5
32A7
  8
0
 62
     0
 10
11.67905359710355
 20
0.4068186686037438
 30
0.0
 11
11.73905359710354
 21
0.4068186686037438
 31
0.0
 12
11.709053597103541
 22
0.2268186686037438
 32
0.0
 13
11.709053597103541
 23
0.2268186686037438
 33
0.0
  0
SOLID
  5
32A8
  8
0
 62
     0
 10
11.67905359710355
 20
7.386818668603742
 30
0.0
 11
11.739053597103551
 21
7.386818668603742
 31
0.0
 12
11.70905359710355
 22
7.5668186686037409
 32
0.0
 13
11.70905359710355
 23
7.5668186686037409
 33
0.0
  0
INSERT
  5
32A9
  8
0
 62
     1
  2
*U66
 10
0.0
 20
0.0
 30
0.0
  0
POINT
  5
32AA
  8
DEFPOINTS
 62
     0
 10
9.2811804535929863
 20
0.2268186686037445
 30
0.0
  0
POINT
  5
32AB
  8
DEFPOINTS
 62
     0
 10
9.2811804535929863
 20
7.5668186686037417
 30
0.0
  0
POINT
  5
32AC
  8
DEFPOINTS
 62
     0
 10
11.70905359710355
 20
7.5668186686037409
 30
0.0
  0
ENDBLK
  5
32A2
  8
0
 62
     1
  0
BLOCK
  8
0
 62
     1
  2
*D58
 70
     1
 10
0.0
 20
0.0
 30
0.0
  3
*D58
  1

  0
LINE
  5
32BC
  8
0
 62
     0
 10
0.6486804535929818
 20
7.5668186686037444
 30
0.0
 11
-2.475676786393016
 21
7.5668186686037453
 31
0.0
  0
LINE
  5
32BD
  8
0
 62
     0
 10
0.7653716429362021
 20
3.896818668603744
 30
0.0
 11
-2.475676786393016
 21
3.8968186686037449
 31
0.0
  0
LINE
  5
32BE
  8
0
 62
     0
 10
-2.295676786393015
 20
7.3868186686037447
 30
0.0
 11
-2.2956767863930159
 21
5.9118186686037451
 31
0.0
  0
LINE
  5
32BF
  8
0
 62
     0
 10
-2.2956767863930159
 20
4.0768186686037451
 30
0.0
 11
-2.2956767863930159
 21
5.5518186686037456
 31
0.0
  0
SOLID
  5
32C0
  8
0
 62
     0
 10
-2.3256767863930148
 20
7.3868186686037447
 30
0.0
 11
-2.2656767863930161
 21
7.3868186686037447
 31
0.0
 12
-2.295676786393015
 22
7.5668186686037453
 32
0.0
 13
-2.295676786393015
 23
7.5668186686037453
 33
0.0
  0
SOLID
  5
32C1
  8
0
 62
     0
 10
-2.3256767863930161
 20
4.0768186686037451
 30
0.0
 11
-2.2656767863930161
 21
4.0768186686037451
 31
0.0
 12
-2.2956767863930159
 22
3.8968186686037449
 32
0.0
 13
-2.2956767863930159
 23
3.8968186686037449
 33
0.0
  0
INSERT
  5
32C2
  8
0
 62
     1
  2
*U67
 10
0.0
 20
0.0
 30
0.0
  0
POINT
  5
32C3
  8
DEFPOINTS
 62
     0
 10
0.7111804535929818
 20
7.5668186686037444
 30
0.0
  0
POINT
  5
32C4
  8
DEFPOINTS
 62
     0
 10
0.827871642936202
 20
3.896818668603744
 30
0.0
  0
POINT
  5
32C5
  8
DEFPOINTS
 62
     0
 10
-2.2956767863930159
 20
3.8968186686037449
 30
0.0
  0
ENDBLK
  5
32BB
  8
0
 62
     1
  0
BLOCK
  8
0
 62
     1
  2
*D59
 70
     1
 10
0.0
 20
0.0
 30
0.0
  3
*D59
  1

  0
LINE
  5
32CA
  8
0
 62
     0
 10
0.4662367445929842
 20
3.896818668603744
 30
0.0
 11
-2.5130961060578372
 21
3.8968186686037449
 31
0.0
  0
LINE
  5
32CB
  8
0
 62
     0
 10
2.5586804535929839
 20
0.5093749594037443
 30
0.0
 11
-2.5130961060578372
 21
0.5093749594037459
 31
0.0
  0
LINE
  5
32CC
  8
0
 62
     0
 10
-2.333096106057837
 20
3.7168186686037452
 30
0.0
 11
-2.333096106057837
 21
2.383096814003745
 31
0.0
  0
LINE
  5
32CD
  8
0
 62
     0
 10
-2.333096106057837
 20
0.6893749594037458
 30
0.0
 11
-2.333096106057837
 21
2.0230968140037451
 31
0.0
  0
SOLID
  5
32CE
  8
0
 62
     0
 10
-2.3630961060578359
 20
3.7168186686037452
 30
0.0
 11
-2.3030961060578372
 21
3.7168186686037452
 31
0.0
 12
-2.333096106057837
 22
3.8968186686037449
 32
0.0
 13
-2.333096106057837
 23
3.8968186686037449
 33
0.0
  0
SOLID
  5
32CF
  8
0
 62
     0
 10
-2.3630961060578368
 20
0.6893749594037458
 30
0.0
 11
-2.3030961060578381
 21
0.6893749594037458
 31
0.0
 12
-2.333096106057837
 22
0.5093749594037459
 32
0.0
 13
-2.333096106057837
 23
0.5093749594037459
 33
0.0
  0
INSERT
  5
32D0
  8
0
 62
     1
  2
*U68
 10
0.0
 20
0.0
 30
0.0
  0
POINT
  5
32D1
  8
DEFPOINTS
 62
     0
 10
0.5287367445929843
 20
3.896818668603744
 30
0.0
  0
POINT
  5
32D2
  8
DEFPOINTS
 62
     0
 10
2.6211804535929839
 20
0.5093749594037443
 30
0.0
  0
POINT
  5
32D3
  8
DEFPOINTS
 62
     0
 10
-2.333096106057837
 20
0.5093749594037459
 30
0.0
  0
ENDBLK
  5
32C9
  8
0
 62
     1
  0
BLOCK
  8
0
 62
     1
  2
*D60
 70
     1
 10
0.0
 20
0.0
 30
0.0
  3
*D60
  1

  0
LINE
  5
32D8
  8
0
 62
     0
 10
0.4662367445929842
 20
3.896818668603744
 30
0.0
 11
-2.5130961060578372
 21
3.8968186686037449
 31
0.0
  0
LINE
  5
32D9
  8
0
 62
     0
 10
0.6486804535929818
 20
0.2268186686037445
 30
0.0
 11
-2.5130961060578381
 21
0.2268186686037454
 31
0.0
  0
LINE
  5
32DA
  8
0
 62
     0
 10
-2.333096106057837
 20
3.7168186686037452
 30
0.0
 11
-2.333096106057837
 21
2.2418186686037451
 31
0.0
  0
LINE
  5
32DB
  8
0
 62
     0
 10
-2.333096106057837
 20
0.4068186686037454
 30
0.0
 11
-2.333096106057837
 21
1.881818668603745
 31
0.0
  0
SOLID
  5
32DC
  8
0
 62
     0
 10
-2.3630961060578359
 20
3.7168186686037452
 30
0.0
 11
-2.3030961060578372
 21
3.7168186686037452
 31
0.0
 12
-2.333096106057837
 22
3.8968186686037449
 32
0.0
 13
-2.333096106057837
 23
3.8968186686037449
 33
0.0
  0
SOLID
  5
32DD
  8
0
 62
     0
 10
-2.3630961060578368
 20
0.4068186686037454
 30
0.0
 11
-2.3030961060578381
 21
0.4068186686037454
 31
0.0
 12
-2.333096106057837
 22
0.2268186686037454
 32
0.0
 13
-2.333096106057837
 23
0.2268186686037454
 33
0.0
  0
INSERT
  5
32DE
  8
0
 62
     1
  2
*U69
 10
0.0
 20
0.0
 30
0.0
  0
POINT
  5
32DF
  8
DEFPOINTS
 62
     0
 10
0.5287367445929843
 20
3.896818668603744
 30
0.0
  0
POINT
  5
32E0
  8
DEFPOINTS
 62
     0
 10
0.7111804535929818
 20
0.2268186686037445
 30
0.0
  0
POINT
  5
32E1
  8
DEFPOINTS
 62
     0
 10
-2.333096106057837
 20
0.2268186686037454
 30
0.0
  0
ENDBLK
  5
32D7
  8
0
 62
     1
  0
BLOCK
  8
0
 62
     1
  2
*D62
 70
     1
 10
0.0
 20
0.0
 30
0.0
  3
*D62
  1

  0
LINE
  5
32FF
  8
0
 62
     0
 10
9.3406804535929844
 20
7.5530686686037436
 30
0.0
 11
11.66081947709505
 21
7.5530686686037427
 31
0.0
  0
LINE
  5
3300
  8
0
 62
     0
 10
9.3406804535929826
 20
0.2405686686037458
 30
0.0
 11
11.66081947709505
 21
0.2405686686037451
 31
0.0
  0
LINE
  5
3301
  8
0
 62
     0
 10
11.48081947709505
 20
7.373068668603743
 30
0.0
 11
11.48081947709505
 21
4.0768186686037442
 31
0.0
  0
LINE
  5
3302
  8
0
 62
     0
 10
11.48081947709505
 20
0.4205686686037452
 30
0.0
 11
11.48081947709505
 21
3.7168186686037439
 31
0.0
  0
SOLID
  5
3303
  8
0
 62
     0
 10
11.450819477095051
 20
7.373068668603743
 30
0.0
 11
11.510819477095049
 21
7.373068668603743
 31
0.0
 12
11.48081947709505
 22
7.5530686686037427
 32
0.0
 13
11.48081947709505
 23
7.5530686686037427
 33
0.0
  0
SOLID
  5
3304
  8
0
 62
     0
 10
11.450819477095051
 20
0.4205686686037452
 30
0.0
 11
11.510819477095049
 21
0.4205686686037452
 31
0.0
 12
11.48081947709505
 22
0.2405686686037452
 32
0.0
 13
11.48081947709505
 23
0.2405686686037452
 33
0.0
  0
INSERT
  5
3305
  8
0
 62
     1
  2
*U70
 10
0.0
 20
0.0
 30
0.0
  0
POINT
  5
3306
  8
DEFPOINTS
 62
     0
 10
9.2781804535929844
 20
7.5530686686037436
 30
0.0
  0
POINT
  5
3307
  8
DEFPOINTS
 62
     0
 10
9.2781804535929826
 20
0.2405686686037458
 30
0.0
  0
POINT
  5
3308
  8
DEFPOINTS
 62
     0
 10
11.48081947709505
 20
0.2405686686037452
 30
0.0
  0
ENDBLK
  5
32FE
  8
0
 62
     1
  0
BLOCK
  8
0
 62
     1
  2
*D63
 70
     1
 10
0.0
 20
0.0
 30
0.0
  3
*D63
  1

  0
LINE
  5
330D
  8
0
 62
     0
 10
0.2774304535929843
 20
7.1788186686037436
 30
0.0
 11
0.2774304535929844
 21
8.4980440893536056
 31
0.0
  0
LINE
  5
330E
  8
0
 62
     0
 10
9.7149304535929843
 20
7.1788186686037436
 30
0.0
 11
9.7149304535929843
 21
8.4980440893536056
 31
0.0
  0
LINE
  5
330F
  8
0
 62
     0
 10
0.4574304535929845
 20
8.3180440893536058
 30
0.0
 11
4.4561804535929843
 21
8.3180440893536058
 31
0.0
  0
LINE
  5
3310
  8
0
 62
     0
 10
9.5349304535929846
 20
8.3180440893536058
 30
0.0
 11
5.5361804535929844
 21
8.3180440893536058
 31
0.0
  0
SOLID
  5
3311
  8
0
 62
     0
 10
0.4574304535929845
 20
8.3480440893536052
 30
0.0
 11
0.4574304535929845
 21
8.2880440893536065
 31
0.0
 12
0.2774304535929844
 22
8.3180440893536058
 32
0.0
 13
0.2774304535929844
 23
8.3180440893536058
 33
0.0
  0
SOLID
  5
3312
  8
0
 62
     0
 10
9.5349304535929846
 20
8.3480440893536052
 30
0.0
 11
9.5349304535929846
 21
8.2880440893536065
 31
0.0
 12
9.7149304535929843
 22
8.3180440893536058
 32
0.0
 13
9.7149304535929843
 23
8.3180440893536058
 33
0.0
  0
INSERT
  5
3313
  8
0
 62
     1
  2
*U71
 10
0.0
 20
0.0
 30
0.0
  0
POINT
  5
3314
  8
DEFPOINTS
 62
     0
 10
0.2774304535929843
 20
7.1163186686037436
 30
0.0
  0
POINT
  5
3315
  8
DEFPOINTS
 62
     0
 10
9.7149304535929843
 20
7.1163186686037436
 30
0.0
  0
POINT
  5
3316
  8
DEFPOINTS
 62
     0
 10
9.7149304535929843
 20
8.3180440893536058
 30
0.0
  0
ENDBLK
  5
330C
  8
0
 62
     1
  0
BLOCK
  8
0
 62
     1
  2
*D64
 70
     1
 10
0.0
 20
0.0
 30
0.0
  3
*D64
  1

  0
LINE
  5
331B
  8
0
 62
     0
 10
3.0921499472500411
 20
8.3589818793282955
 30
0.0
 11
2.9121499472500418
 21
8.3589818793282955
 31
0.0
  0
LINE
  5
331C
  8
0
 62
     0
 10
2.9121499472500418
 20
8.3589818793282955
 30
0.0
 11
2.693503942796561
 21
7.5513950701170707
 31
0.0
  0
INSERT
  5
331D
  8
0
 62
     1
  2
*U72
 10
0.0
 20
0.0
 30
0.0
  0
SOLID
  5
331E
  8
0
 62
     0
 10
2.664546469353382
 20
7.5592350147461849
 30
0.0
 11
2.72246141623974
 21
7.5435551254879574
 31
0.0
 12
2.6464642750218772
 22
7.3776502294579958
 32
0.0
 13
2.6464642750218772
 23
7.3776502294579958
 33
0.0
  0
LINE
  5
331F
  8
0
 62
     0
 10
2.531180453592984
 20
7.2842623776037421
 30
0.0
 11
2.7111804535929842
 21
7.2842623776037421
 31
0.0
  0
LINE
  5
3320
  8
0
 62
     0
 10
2.6211804535929839
 20
7.1942623776037413
 30
0.0
 11
2.6211804535929839
 21
7.3742623776037419
 31
0.0
  0
POINT
  5
3321
  8
DEFPOINTS
 62
     0
 10
2.6464642750218772
 20
7.3776502294579958
 30
0.0
  0
POINT
  5
3322
  8
DEFPOINTS
 62
     0
 10
2.5958966321640902
 20
7.1908745257494866
 30
0.0
  0
ENDBLK
  5
331A
  8
0
 62
     1
  0
BLOCK
  8
0
 62
     1
  2
*U65
 70
     1
 10
0.0
 20
0.0
 30
0.0
  3
*U65
  1

  0
TEXT
  5
3377
  8
0
 62
     0
 10
4.5911804535929832
 20
8.2111074289797763
 30
0.0
 40
0.18
  1
9.5000
  0
ENDBLK
  5
3379
  8
0
 62
     1
  0
BLOCK
  8
0
 62
     1
  2
*U66
 70
     1
 10
0.0
 20
0.0
 30
0.0
  3
*U66
  1

  0
TEXT
  5
337B
  8
0
 62
     0
 10
11.289053597103541
 20
3.8068186686037442
 30
0.0
 40
0.18
  1
7.3400
  0
ENDBLK
  5
337D
  8
0
 62
     1
  0
BLOCK
  8
0
 62
     1
  2
*U67
 70
     1
 10
0.0
 20
0.0
 30
0.0
  3
*U67
  1

  0
TEXT
  5
3382
  8
0
 62
     0
 10
-2.7156767863930171
 20
5.6418186686037446
 30
0.0
 40
0.18
  1
3.6700
  0
ENDBLK
  5
3384
  8
0
 62
     1
  0
BLOCK
  8
0
 62
     1
  2
*U68
 70
     1
 10
0.0
 20
0.0
 30
0.0
  3
*U68
  1

  0
TEXT
  5
3386
  8
0
 62
     0
 10
-2.7830961060578381
 20
2.1130968140037441
 30
0.0
 40
0.18
  1
3.3874
  0
ENDBLK
  5
3388
  8
0
 62
     1
  0
BLOCK
  8
0
 62
     1
  2
*U69
 70
     1
 10
0.0
 20
0.0
 30
0.0
  3
*U69
  1

  0
TEXT
  5
338A
  8
0
 62
     0
 10
-2.7530961060578369
 20
1.971818668603744
 30
0.0
 40
0.18
  1
3.6700
  0
ENDBLK
  5
338C
  8
0
 62
     1
  0
BLOCK
  8
0
 62
     1
  2
*U70
 70
     1
 10
0.0
 20
0.0
 30
0.0
  3
*U70
  1

  0
TEXT
  5
3397
  8
0
 62
     0
 10
11.06081947709505
 20
3.806818668603746
 30
0.0
 40
0.18
  1
7.3125
  0
ENDBLK
  5
3399
  8
0
 62
     1
  0
BLOCK
  8
0
 62
     1
  2
*U71
 70
     1
 10
0.0
 20
0.0
 30
0.0
  3
*U71
  1

  0
TEXT
  5
339B
  8
0
 62
     0
 10
4.5461804535929842
 20
8.2280440893536042
 30
0.0
 40
0.18
  1
9.4375
  0
ENDBLK
  5
339D
  8
0
 62
     1
  0
BLOCK
  8
0
 62
     1
  2
*U72
 70
     1
 10
0.0
 20
0.0
 30
0.0
  3
*U72
  1

  0
TEXT
  5
339F
  8
0
 62
     0
 10
3.182149947250041
 20
8.2689818793282956
 30
0.0
 40
0.18
  1
\U+22050.1935
  0
ENDBLK
  5
33A1
  8
0
 62
     1
  0
ENDSEC
  0
SECTION
  2
ENTITIES
  0
CIRCLE
  5
2C6
  8
0
  6
CONTINUOUS
 10
2.6211804535929839
 20
7.284262377603743
 30
0.0
 40
0.0967500000000018
  0
CIRCLE
  5
2C7
  8
0
  6
CONTINUOUS
 10
7.3711804535929852
 20
0.5093749594037443
 30
0.0
 40
0.0967499999999984
  0
CIRCLE
  5
2C8
  8
0
  6
CONTINUOUS
 10
7.3711804535929852
 20
7.284262377603743
 30
0.0
 40
0.0967500000000002
  0
CIRCLE
  5
2D1
  8
0
  6
CONTINUOUS
 10
9.4636241625929856
 20
3.896818668603744
 30
0.0
 40
0.0967500000000002
  0
CIRCLE
  5
2D2
  8
0
  6
CONTINUOUS
 10
0.5287367445929843
 20
3.896818668603744
 30
0.0
 40
0.0967500000000002
  0
CIRCLE
  5
2D3
  8
0
  6
CONTINUOUS
 10
2.6211804535929839
 20
0.5093749594037443
 30
0.0
 40
0.0967499999999984
  0
POLYLINE
  5
32F8
  8
0
 66
     1
 10
0.0
 20
0.0
 30
0.0
 70
     1
  0
VERTEX
  5
338D
  8
0
 10
9.7149304535929808
 20
0.6773186686037456
 30
0.0
  0
VERTEX
  5
338E
  8
0
 10
9.7149304535929843
 20
7.1163186686037436
 30
0.0
 42
0.4142135623730951
  0
VERTEX
  5
338F
  8
0
 10
9.2781804535929844
 20
7.5530686686037436
 30
0.0
  0
VERTEX
  5
3390
  8
0
 10
0.7141804535929844
 20
7.5530686686037436
 30
0.0
 42
0.4142135623730951
  0
VERTEX
  5
3391
  8
0
 10
0.2774304535929843
 20
7.1163186686037436
 30
0.0
  0
VERTEX
  5
3392
  8
0
 10
0.2774304535929843
 20
0.6773186686037463
 30
0.0
 42
0.4142135623730951
  0
VERTEX
  5
3393
  8
0
 10
0.7141804535929843
 20
0.2405686686037458
 30
0.0
  0
VERTEX
  5
3394
  8
0
 10
9.2781804535929844
 20
0.2405686686037458
 30
0.0
 42
0.414213562373095
  0
SEQEND
  5
3395
  8
0
  0
ENDSEC
  0
EOF
