  0
SECTION
  2
HEADER
  9
$ACADVER
  1
AC1009
  9
$INSBASE
 10
0.0
 20
0.0
 30
0.0
  9
$EXTMIN
 10
0.5195895144979652
 20
0.4910969495771675
 30
0.0
  9
$EXTMAX
 10
42.306535721998131
 20
14.727013717136179
 30
0.0
  9
$LIMMIN
 10
0.0
 20
0.0
  9
$LIMMAX
 10
12.0
 20
9.0
  9
$ORTHOMODE
 70
     1
  9
$REGENMODE
 70
     1
  9
$FILLMODE
 70
     1
  9
$QTEXTMODE
 70
     0
  9
$MIRRTEXT
 70
     0
  9
$DRAGMODE
 70
     2
  9
$LTSCALE
 40
1.0
  9
$OSMODE
 70
  2087
  9
$ATTMODE
 70
     1
  9
$TEXTSIZE
 40
0.2
  9
$TRACEWID
 40
0.05
  9
$TEXTSTYLE
  7
STANDARD
  9
$CLAYER
  8
0
  9
$CELTYPE
  6
BYLAYER
  9
$CECOLOR
 62
   256
  9
$DIMSCALE
 40
1.0
  9
$DIMASZ
 40
0.18
  9
$DIMEXO
 40
0.0625
  9
$DIMDLI
 40
0.38
  9
$DIMRND
 40
0.0
  9
$DIMDLE
 40
0.0
  9
$DIMEXE
 40
0.18
  9
$DIMTP
 40
0.0
  9
$DIMTM
 40
0.0
  9
$DIMTXT
 40
0.18
  9
$DIMCEN
 40
0.09
  9
$DIMTSZ
 40
0.0
  9
$DIMTOL
 70
     0
  9
$DIMLIM
 70
     0
  9
$DIMTIH
 70
     1
  9
$DIMTOH
 70
     1
  9
$DIMSE1
 70
     0
  9
$DIMSE2
 70
     0
  9
$DIMTAD
 70
     0
  9
$DIMZIN
 70
     0
  9
$DIMBLK
  1

  9
$DIMASO
 70
     1
  9
$DIMSHO
 70
     1
  9
$DIMPOST
  1

  9
$DIMAPOST
  1

  9
$DIMALT
 70
     0
  9
$DIMALTD
 70
     2
  9
$DIMALTF
 40
25.399999999999999
  9
$DIMLFAC
 40
1.0
  9
$DIMTOFL
 70
     0
  9
$DIMTVP
 40
0.0
  9
$DIMTIX
 70
     0
  9
$DIMSOXD
 70
     0
  9
$DIMSAH
 70
     0
  9
$DIMBLK1
  1

  9
$DIMBLK2
  1

  9
$DIMSTYLE
  2
STANDARD
  9
$DIMCLRD
 70
     0
  9
$DIMCLRE
 70
     0
  9
$DIMCLRT
 70
     0
  9
$DIMTFAC
 40
1.0
  9
$DIMGAP
 40
0.09
  9
$LUNITS
 70
     2
  9
$LUPREC
 70
     4
  9
$SKETCHINC
 40
0.1
  9
$FILLETRAD
 40
1.0649999999999991
  9
$AUNITS
 70
     0
  9
$AUPREC
 70
     0
  9
$MENU
  1
.
  9
$ELEVATION
 40
0.0
  9
$PELEVATION
 40
0.0
  9
$THICKNESS
 40
0.0
  9
$LIMCHECK
 70
     0
  9
$BLIPMODE
 70
     0
  9
$CHAMFERA
 40
0.0
  9
$CHAMFERB
 40
0.0
  9
$SKPOLY
 70
     0
  9
$TDCREATE
 40
2459060.4858412272
  9
$TDUPDATE
 40
2459062.5695943632
  9
$TDINDWG
 40
0.0035907523
  9
$TDUSRTIMER
 40
0.0035907176
  9
$USRTIMER
 70
     1
  9
$ANGBASE
 50
0.0
  9
$ANGDIR
 70
     0
  9
$PDMODE
 70
     0
  9
$PDSIZE
 40
0.0
  9
$PLINEWID
 40
0.0
  9
$COORDS
 70
     1
  9
$SPLFRAME
 70
     0
  9
$SPLINETYPE
 70
     6
  9
$SPLINESEGS
 70
     8
  9
$ATTDIA
 70
     1
  9
$ATTREQ
 70
     1
  9
$HANDLING
 70
     1
  9
$HANDSEED
  5
65F
  9
$SURFTAB1
 70
     6
  9
$SURFTAB2
 70
     6
  9
$SURFTYPE
 70
     6
  9
$SURFU
 70
     6
  9
$SURFV
 70
     6
  9
$UCSNAME
  2

  9
$UCSORG
 10
0.0
 20
0.0
 30
0.0
  9
$UCSXDIR
 10
1.0
 20
0.0
 30
0.0
  9
$UCSYDIR
 10
0.0
 20
1.0
 30
0.0
  9
$PUCSNAME
  2

  9
$PUCSORG
 10
0.0
 20
0.0
 30
0.0
  9
$PUCSXDIR
 10
1.0
 20
0.0
 30
0.0
  9
$PUCSYDIR
 10
0.0
 20
1.0
 30
0.0
  9
$USERI1
 70
     0
  9
$USERI2
 70
     0
  9
$USERI3
 70
     0
  9
$USERI4
 70
     0
  9
$USERI5
 70
     0
  9
$USERR1
 40
0.0
  9
$USERR2
 40
0.0
  9
$USERR3
 40
0.0
  9
$USERR4
 40
0.0
  9
$USERR5
 40
0.0
  9
$WORLDVIEW
 70
     1
  9
$SHADEDGE
 70
     3
  9
$SHADEDIF
 70
    70
  9
$TILEMODE
 70
     1
  9
$MAXACTVP
 70
    64
  9
$PLIMCHECK
 70
     0
  9
$PEXTMIN
 10
0.0
 20
0.0
 30
0.0
  9
$PEXTMAX
 10
0.0
 20
0.0
 30
0.0
  9
$PLIMMIN
 10
0.0
 20
0.0
  9
$PLIMMAX
 10
12.0
 20
9.0
  9
$UNITMODE
 70
     0
  9
$VISRETAIN
 70
     1
  9
$PLINEGEN
 70
     0
  9
$PSLTSCALE
 70
     1
  0
ENDSEC
  0
SECTION
  2
TABLES
  0
TABLE
  2
VPORT
 70
     1
  0
VPORT
  2
*ACTIVE
 70
     0
 10
0.0
 20
0.0
 11
1.0
 21
1.0
 12
6.227635034994023
 22
3.972462054321237
 13
0.0
 23
0.0
 14
0.5
 24
0.5
 15
0.5
 25
0.5
 16
0.0
 26
0.0
 36
1.0
 17
0.0
 27
0.0
 37
0.0
 40
32.849893313633068
 41
2.2927120669056151
 42
50.0
 43
0.0
 44
0.0
 50
0.0
 51
0.0
 71
     0
 72
  1000
 73
     1
 74
     3
 75
     0
 76
     1
 77
     0
 78
     0
  0
ENDTAB
  0
TABLE
  2
LTYPE
 70
     3
  0
LTYPE
  2
CONTINUOUS
 70
     0
  3
Solid line
 72
    65
 73
     0
 40
0.0
  0
LTYPE
  2
CENTERX2
 70
     0
  3
Center (2x) ________  __  ________  __  _____
 72
    65
 73
     4
 40
0.8
 49
0.5
 49
-0.1
 49
0.1
 49
-0.1
  0
ENDTAB
  0
TABLE
  2
LAYER
 70
     2
  0
LAYER
  2
0
 70
     0
 62
     7
  6
CONTINUOUS
  0
LAYER
  2
DEFPOINTS
 70
     0
 62
     7
  6
CONTINUOUS
  0
ENDTAB
  0
TABLE
  2
STYLE
 70
     3
  0
STYLE
  2
STANDARD
 70
     0
 40
0.0
 41
1.0
 50
0.0
 71
     0
 42
0.2
  3
txt
  4

  0
STYLE
  2
ANNOTATIVE
 70
     0
 40
0.0
 41
1.0
 50
0.0
 71
     0
 42
0.2
  3
txt
  4

  0
STYLE
  2
SLDTEXTSTYLE2
 70
     0
 40
0.0
 41
0.75
 50
0.0
 71
     0
 42
0.1
  3
TXT
  4

  0
ENDTAB
  0
TABLE
  2
VIEW
 70
     0
  0
ENDTAB
  0
TABLE
  2
UCS
 70
     0
  0
ENDTAB
  0
TABLE
  2
APPID
 70
     9
  0
APPID
  2
ACAD
 70
     0
  0
APPID
  2
ACADANNOTATIVE
 70
     0
  0
APPID
  2
ACADANNOPO
 70
     0
  0
APPID
  2
ACAD_DSTYLE_DIMJAG
 70
     0
  0
APPID
  2
ACAD_DSTYLE_DIMTALN
 70
     0
  0
APPID
  2
ACAD_MLEADERVER
 70
     0
  0
APPID
  2
ACAD_NAV_VCDISPLAY
 70
     0
  0
APPID
  2
ACAD_DSTYLE_DIMRADIAL_EXTENSION
 70
     0
  0
APPID
  2
ACAD_EXEMPT_FROM_CAD_STANDARDS
 70
     0
  0
ENDTAB
  0
TABLE
  2
DIMSTYLE
 70
     7
  0
DIMSTYLE
  2
STANDARD
 70
     0
  3

  4

  5

  6

  7

 40
1.0
 41
0.18
 42
0.0625
 43
0.38
 44
0.18
 45
0.0
 46
0.0
 47
0.0
 48
0.0
140
0.18
141
0.09
142
0.0
143
25.399999999999999
144
1.0
145
0.0
146
1.0
147
0.09
 71
     0
 72
     0
 73
     1
 74
     1
 75
     0
 76
     0
 77
     0
 78
     0
170
     0
171
     2
172
     0
173
     0
174
     0
175
     0
176
     0
177
     0
178
     0
  0
DIMSTYLE
  2
ANNOTATIVE
 70
     0
  3

  4

  5

  6

  7

 40
0.0
 41
0.18
 42
0.0625
 43
0.38
 44
0.18
 45
0.0
 46
0.0
 47
0.0
 48
0.0
140
0.18
141
0.09
142
0.0
143
25.399999999999999
144
1.0
145
0.0
146
1.0
147
0.09
 71
     0
 72
     0
 73
     1
 74
     1
 75
     0
 76
     0
 77
     0
 78
     0
170
     0
171
     2
172
     0
173
     0
174
     0
175
     0
176
     0
177
     0
178
     0
  0
DIMSTYLE
  2
SLDDIMSTYLE0
 70
     0
  3

  4

  5

  6

  7

 40
1.0
 41
0.078
 42
0.0625
 43
0.38
 44
0.0
 45
0.000000001
 46
0.0
 47
0.0
 48
0.0
140
0.1
141
0.09
142
0.0
143
25.399999999999999
144
3.0
145
0.0
146
1.0
147
0.025
 71
     0
 72
     0
 73
     1
 74
     1
 75
     0
 76
     0
 77
     0
 78
    12
170
     0
171
     2
172
     1
173
     1
174
     0
175
     0
176
     0
177
     0
178
     0
  0
DIMSTYLE
  2
SLDDIMSTYLE1
 70
     0
  3

  4

  5

  6

  7

 40
1.0
 41
0.078
 42
0.0625
 43
0.38
 44
0.0
 45
0.000000001
 46
0.0
 47
0.0
 48
0.0
140
0.1
141
0.09
142
0.0
143
25.399999999999999
144
3.0
145
0.0
146
1.0
147
0.025
 71
     0
 72
     0
 73
     1
 74
     1
 75
     0
 76
     0
 77
     0
 78
    12
170
     0
171
     2
172
     0
173
     1
174
     0
175
     0
176
     0
177
     0
178
     0
  0
DIMSTYLE
  2
SLDDIMSTYLE2
 70
     0
  3

  4

  5

  6

  7

 40
1.0
 41
0.078
 42
0.0625
 43
0.38
 44
0.0
 45
0.000000001
 46
0.0
 47
0.0
 48
0.0
140
0.1
141
0.09
142
0.0
143
25.399999999999999
144
3.0
145
0.0
146
1.0
147
0.025
 71
     0
 72
     0
 73
     1
 74
     1
 75
     0
 76
     0
 77
     0
 78
     4
170
     0
171
     2
172
     0
173
     1
174
     0
175
     0
176
     0
177
     0
178
     0
  0
DIMSTYLE
  2
SLDDIMSTYLE3
 70
     0
  3

  4

  5

  6

  7

 40
1.0
 41
0.078
 42
0.0625
 43
0.38
 44
0.0
 45
0.000000001
 46
0.0
 47
0.0
 48
0.0
140
0.1
141
0.0
142
0.0
143
25.399999999999999
144
3.0
145
0.0
146
1.0
147
0.025
 71
     0
 72
     0
 73
     1
 74
     1
 75
     0
 76
     0
 77
     0
 78
    12
170
     0
171
     2
172
     0
173
     1
174
     0
175
     0
176
     0
177
     0
178
     0
  0
ENDTAB
  0
ENDSEC
  0
SECTION
  2
BLOCKS
  0
BLOCK
  8
0
  2
$MODEL_SPACE
 70
     0
 10
0.0
 20
0.0
 30
0.0
  3
$MODEL_SPACE
  1

  0
ENDBLK
  5
54A
  8
0
  0
BLOCK
 67
     1
  8
0
  2
$PAPER_SPACE
 70
     0
 10
0.0
 20
0.0
 30
0.0
  3
$PAPER_SPACE
  1

  0
ENDBLK
  5
546
 67
     1
  8
0
  0
BLOCK
  8
0
  2
SW_RADIAL_DIMENSION_0
 70
     0
 10
0.0
 20
0.0
 30
0.0
  3
SW_RADIAL_DIMENSION_0
  1

  0
SOLID
  5
1EB
  8
0
  6
CONTINUOUS
 62
     0
 10
1.630375509899999
 20
0.4069258408
 30
0.0
 11
1.553665184799998
 21
0.3877288092
 31
0.0
 12
1.5640377531
 22
0.3638874622
 32
0.0
 13
1.5640377531
 23
0.3638874622
 33
0.0
  0
LINE
  5
1EC
  8
0
  6
CONTINUOUS
 62
     0
 10
1.630375509899999
 20
0.4069258408
 30
0.0
 11
0.8774999693000001
 21
0.0793750097
 31
0.0
  0
LINE
  5
1ED
  8
0
  6
CONTINUOUS
 62
     0
 10
0.8774999693000001
 20
0.0793750097
 30
0.0
 11
0.7008333326000003
 21
0.0793750097
 31
0.0
  0
INSERT
  5
1EE
  8
0
  2
*U3
 10
0.0
 20
0.0
 30
0.0
  0
INSERT
  5
1EF
  8
0
  2
*U4
 10
0.0
 20
0.0
 30
0.0
  0
ENDBLK
  5
1F0
  8
0
  0
BLOCK
  8
0
  2
*U3
 70
     1
 10
0.0
 20
0.0
 30
0.0
  3
*U3
  1

  0
TEXT
  5
470
  8
0
 62
     0
 10
0.0
 20
0.028906774
 30
0.0
 40
0.1
  1
HOLE FOR
 41
0.75
  7
SLDTEXTSTYLE2
  0
ENDBLK
  5
472
  8
0
  0
BLOCK
  8
0
  2
*U4
 70
     1
 10
0.0
 20
0.0
 30
0.0
  3
*U4
  1

  0
TEXT
  5
474
  8
0
 62
     0
 10
-0.1079166367
 20
-0.1298432271
 30
0.0
 40
0.1
  1
#8-32 SCREW
 41
0.75
  7
SLDTEXTSTYLE2
  0
ENDBLK
  5
476
  8
0
  0
BLOCK
  8
0
  2
_D
 70
     0
 10
0.0
 20
0.0
 30
0.0
  3
_D
  1

  0
SOLID
  5
1F3
  8
0
  6
CONTINUOUS
 62
     7
 10
2.3066297568
 20
2.8857376183999981
 30
0.0
 11
2.2286297568000002
 21
2.898737618399998
 31
0.0
 12
2.2286297568000002
 22
2.8727376183999982
 32
0.0
 13
2.2286297568000002
 23
2.8727376183999982
 33
0.0
  0
SOLID
  5
1F4
  8
0
  6
CONTINUOUS
 62
     7
 10
2.402481853799999
 20
2.8857376183999981
 30
0.0
 11
2.480481853799998
 21
2.8727376183999982
 31
0.0
 12
2.480481853799998
 22
2.898737618399998
 32
0.0
 13
2.480481853799998
 23
2.898737618399998
 33
0.0
  0
LINE
  5
1F5
  8
0
  6
CONTINUOUS
 62
     7
 10
2.3066297568
 20
3.4048680808
 30
0.0
 11
2.3066297568
 21
2.8357376183999992
 31
0.0
  0
LINE
  5
1F6
  8
0
  6
CONTINUOUS
 62
     7
 10
2.402481853799999
 20
4.1365347474999981
 30
0.0
 11
2.402481853799999
 21
2.8357376183999992
 31
0.0
  0
LINE
  5
1F7
  8
0
  6
CONTINUOUS
 62
     7
 10
2.3066297568
 20
2.8857376183999981
 30
0.0
 11
2.042234528999999
 21
2.8857376183999981
 31
0.0
  0
LINE
  5
1F8
  8
0
  6
CONTINUOUS
 62
     7
 10
2.402481853799999
 20
2.8857376183999981
 30
0.0
 11
2.527481853799999
 21
2.8857376183999981
 31
0.0
  0
INSERT
  5
1F9
  8
0
  2
*U6
 10
0.0
 20
0.0
 30
0.0
  0
ENDBLK
  5
1FA
  8
0
  0
BLOCK
  8
0
  2
*U6
 70
     1
 10
0.0
 20
0.0
 30
0.0
  3
*U6
  1

  0
TEXT
  5
478
  8
0
 62
     7
 10
1.7836234097999979
 20
2.835269391899998
 30
0.0
 40
0.1
  1
.288
 41
0.75
  7
SLDTEXTSTYLE2
  0
ENDBLK
  5
47A
  8
0
  0
BLOCK
  8
0
  2
_D_1
 70
     0
 10
0.0
 20
0.0
 30
0.0
  3
_D_1
  1

  0
SOLID
  5
1FD
  8
0
  6
CONTINUOUS
 62
     7
 10
2.402481853799999
 20
2.8857376183999981
 30
0.0
 11
2.480481853799998
 21
2.8727376183999982
 31
0.0
 12
2.480481853799998
 22
2.898737618399998
 32
0.0
 13
2.480481853799998
 23
2.898737618399998
 33
0.0
  0
SOLID
  5
1FE
  8
0
  6
CONTINUOUS
 62
     7
 10
4.2999630901000003
 20
2.8857376183999981
 30
0.0
 11
4.2219630901
 21
2.898737618399998
 31
0.0
 12
4.2219630901
 22
2.8727376183999982
 32
0.0
 13
4.2219630901
 23
2.8727376183999982
 33
0.0
  0
LINE
  5
1FF
  8
0
  6
CONTINUOUS
 62
     7
 10
2.402481853799999
 20
4.1365347474999981
 30
0.0
 11
2.402481853799999
 21
2.8357376183999992
 31
0.0
  0
LINE
  5
200
  8
0
  6
CONTINUOUS
 62
     7
 10
4.2999630901000003
 20
3.1490535111999991
 30
0.0
 11
4.2999630901000003
 21
2.8357376183999992
 31
0.0
  0
LINE
  5
201
  8
0
  6
CONTINUOUS
 62
     7
 10
2.402481853799999
 20
2.8857376183999981
 30
0.0
 11
3.184972464099999
 21
2.8857376183999981
 31
0.0
  0
LINE
  5
202
  8
0
  6
CONTINUOUS
 62
     7
 10
4.2999630901000003
 20
2.8857376183999981
 30
0.0
 11
3.517472479699999
 21
2.8857376183999981
 31
0.0
  0
INSERT
  5
203
  8
0
  2
*U8
 10
0.0
 20
0.0
 30
0.0
  0
ENDBLK
  5
204
  8
0
  0
BLOCK
  8
0
  2
*U8
 70
     1
 10
0.0
 20
0.0
 30
0.0
  3
*U8
  1

  0
TEXT
  5
47C
  8
0
 62
     7
 10
3.184972464099999
 20
2.835269391899998
 30
0.0
 40
0.1
  1
5.692
 41
0.75
  7
SLDTEXTSTYLE2
  0
ENDBLK
  5
47E
  8
0
  0
BLOCK
  8
0
  2
_D_2
 70
     0
 10
0.0
 20
0.0
 30
0.0
  3
_D_2
  1

  0
SOLID
  5
207
  8
0
  6
CONTINUOUS
 62
     7
 10
4.2999630901000003
 20
2.8857376183999981
 30
0.0
 11
4.377963090099998
 21
2.8727376183999982
 31
0.0
 12
4.377963090099998
 22
2.898737618399998
 32
0.0
 13
4.377963090099998
 23
2.898737618399998
 33
0.0
  0
SOLID
  5
208
  8
0
  6
CONTINUOUS
 62
     7
 10
6.466629756799998
 20
2.8857376183999981
 30
0.0
 11
6.3886297567999986
 21
2.898737618399998
 31
0.0
 12
6.3886297567999986
 22
2.8727376183999982
 32
0.0
 13
6.3886297567999986
 23
2.8727376183999982
 33
0.0
  0
LINE
  5
209
  8
0
  6
CONTINUOUS
 62
     7
 10
4.2999630901000003
 20
3.1490535111999991
 30
0.0
 11
4.2999630901000003
 21
2.8357376183999992
 31
0.0
  0
LINE
  5
20A
  8
0
  6
CONTINUOUS
 62
     7
 10
6.466629756799998
 20
3.1490535111999991
 30
0.0
 11
6.466629756799998
 21
2.8357376183999992
 31
0.0
  0
LINE
  5
20B
  8
0
  6
CONTINUOUS
 62
     7
 10
4.2999630901000003
 20
2.8857376183999981
 30
0.0
 11
5.2170464156999987
 21
2.8857376183999981
 31
0.0
  0
LINE
  5
20C
  8
0
  6
CONTINUOUS
 62
     7
 10
6.466629756799998
 20
2.8857376183999981
 30
0.0
 11
5.5495464312999987
 21
2.8857376183999981
 31
0.0
  0
INSERT
  5
20D
  8
0
  2
*U10
 10
0.0
 20
0.0
 30
0.0
  0
ENDBLK
  5
20E
  8
0
  0
BLOCK
  8
0
  2
*U10
 70
     1
 10
0.0
 20
0.0
 30
0.0
  3
*U10
  1

  0
TEXT
  5
480
  8
0
 62
     7
 10
5.2170464156999987
 20
2.835269391899998
 30
0.0
 40
0.1
  1
6.500
 41
0.75
  7
SLDTEXTSTYLE2
  0
ENDBLK
  5
482
  8
0
  0
BLOCK
  8
0
  2
_D_3
 70
     0
 10
0.0
 20
0.0
 30
0.0
  3
_D_3
  1

  0
SOLID
  5
211
  8
0
  6
CONTINUOUS
 62
     7
 10
2.402481853799999
 20
2.6945006268
 30
0.0
 11
2.480481853799998
 21
2.6815006268000001
 31
0.0
 12
2.480481853799998
 22
2.707500626799999
 32
0.0
 13
2.480481853799998
 23
2.707500626799999
 33
0.0
  0
SOLID
  5
212
  8
0
  6
CONTINUOUS
 62
     7
 10
8.3641109932000006
 20
2.6945006268
 30
0.0
 11
8.2861109932000012
 21
2.707500626799999
 31
0.0
 12
8.2861109932000012
 22
2.6815006268000001
 32
0.0
 13
8.2861109932000012
 23
2.6815006268000001
 33
0.0
  0
LINE
  5
213
  8
0
  6
CONTINUOUS
 62
     7
 10
2.402481853799999
 20
4.1365347474999981
 30
0.0
 11
2.402481853799999
 21
2.6445006268000002
 31
0.0
  0
LINE
  5
214
  8
0
  6
CONTINUOUS
 62
     7
 10
8.3641109932000006
 20
4.1365347474999981
 30
0.0
 11
8.3641109932000006
 21
2.6445006268000002
 31
0.0
  0
LINE
  5
215
  8
0
  6
CONTINUOUS
 62
     7
 10
2.402481853799999
 20
2.6945006268
 30
0.0
 11
5.180101967399998
 21
2.6945006268
 31
0.0
  0
LINE
  5
216
  8
0
  6
CONTINUOUS
 62
     7
 10
8.3641109932000006
 20
2.6945006268
 30
0.0
 11
5.5864908795000003
 21
2.6945006268
 31
0.0
  0
INSERT
  5
217
  8
0
  2
*U12
 10
0.0
 20
0.0
 30
0.0
  0
ENDBLK
  5
218
  8
0
  0
BLOCK
  8
0
  2
*U12
 70
     1
 10
0.0
 20
0.0
 30
0.0
  3
*U12
  1

  0
TEXT
  5
484
  8
0
 62
     7
 10
5.180101967399998
 20
2.6440324001999991
 30
0.0
 40
0.1
  1
17.885
 41
0.75
  7
SLDTEXTSTYLE2
  0
ENDBLK
  5
486
  8
0
  0
BLOCK
  8
0
  2
_D_4
 70
     0
 10
0.0
 20
0.0
 30
0.0
  3
_D_4
  1

  0
SOLID
  5
21B
  8
0
  6
CONTINUOUS
 62
     7
 10
8.8536638775000007
 20
3.0882014141999989
 30
0.0
 11
8.8406638775000008
 21
3.0102014141999991
 31
0.0
 12
8.8666638775000006
 22
3.0102014141999991
 32
0.0
 13
8.8666638775000006
 23
3.0102014141999991
 33
0.0
  0
SOLID
  5
21C
  8
0
  6
CONTINUOUS
 62
     7
 10
8.8536638775000007
 20
3.1840535112000001
 30
0.0
 11
8.8666638775000006
 21
3.2620535111999991
 31
0.0
 12
8.8406638775000008
 22
3.2620535111999991
 32
0.0
 13
8.8406638775000008
 23
3.2620535111999991
 33
0.0
  0
LINE
  5
21D
  8
0
  6
CONTINUOUS
 62
     7
 10
8.1432964235000007
 20
3.0882014141999989
 30
0.0
 11
8.9036638774999979
 21
3.0882014141999989
 31
0.0
  0
LINE
  5
21E
  8
0
  6
CONTINUOUS
 62
     7
 10
6.501629756799999
 20
3.1840535112000001
 30
0.0
 11
8.9036638774999979
 21
3.1840535112000001
 31
0.0
  0
LINE
  5
21F
  8
0
  6
CONTINUOUS
 62
     7
 10
8.9536638775000004
 20
2.8857376183999981
 30
0.0
 11
8.8536638775000007
 21
2.8857376183999981
 31
0.0
  0
LINE
  5
220
  8
0
  6
CONTINUOUS
 62
     7
 10
8.8536638775000007
 20
2.8857376183999981
 30
0.0
 11
8.8536638775000007
 21
3.0882014141999989
 31
0.0
  0
LINE
  5
221
  8
0
  6
CONTINUOUS
 62
     7
 10
8.8536638775000007
 20
3.1840535112000001
 30
0.0
 11
8.8536638775000007
 21
3.3090535112000001
 31
0.0
  0
INSERT
  5
222
  8
0
  2
*U14
 10
0.0
 20
0.0
 30
0.0
  0
ENDBLK
  5
223
  8
0
  0
BLOCK
  8
0
  2
*U14
 70
     1
 10
0.0
 20
0.0
 30
0.0
  3
*U14
  1

  0
TEXT
  5
488
  8
0
 62
     7
 10
8.9536638775000004
 20
2.835269391899998
 30
0.0
 40
0.1
  1
.288
 41
0.75
  7
SLDTEXTSTYLE2
  0
ENDBLK
  5
48A
  8
0
  0
BLOCK
  8
0
  2
_D_5
 70
     0
 10
0.0
 20
0.0
 30
0.0
  3
_D_5
  1

  0
SOLID
  5
226
  8
0
  6
CONTINUOUS
 62
     7
 10
8.8536638775000007
 20
3.1840535112000001
 30
0.0
 11
8.8666638775000006
 21
3.2620535111999991
 31
0.0
 12
8.8406638775000008
 22
3.2620535111999991
 32
0.0
 13
8.8406638775000008
 23
3.2620535111999991
 33
0.0
  0
SOLID
  5
227
  8
0
  6
CONTINUOUS
 62
     7
 10
8.8536638775000007
 20
4.1715347474999991
 30
0.0
 11
8.8406638775000008
 21
4.0935347474999979
 31
0.0
 12
8.8666638775000006
 22
4.0935347474999979
 32
0.0
 13
8.8666638775000006
 23
4.0935347474999979
 33
0.0
  0
LINE
  5
228
  8
0
  6
CONTINUOUS
 62
     7
 10
6.501629756799999
 20
3.1840535112000001
 30
0.0
 11
8.9036638774999979
 21
3.1840535112000001
 31
0.0
  0
LINE
  5
229
  8
0
  6
CONTINUOUS
 62
     7
 10
8.3991109932000008
 20
4.1715347474999991
 30
0.0
 11
8.9036638774999979
 21
4.1715347474999991
 31
0.0
  0
LINE
  5
22A
  8
0
  6
CONTINUOUS
 62
     7
 10
8.8536638775000007
 20
3.1840535112000001
 30
0.0
 11
8.8536638775000007
 21
3.598419128799998
 31
0.0
  0
LINE
  5
22B
  8
0
  6
CONTINUOUS
 62
     7
 10
8.8536638775000007
 20
4.1715347474999991
 30
0.0
 11
8.8536638775000007
 21
3.757169129899999
 31
0.0
  0
INSERT
  5
22C
  8
0
  2
*U16
 10
0.0
 20
0.0
 30
0.0
  0
ENDBLK
  5
22D
  8
0
  0
BLOCK
  8
0
  2
*U16
 70
     1
 10
0.0
 20
0.0
 30
0.0
  3
*U16
  1

  0
TEXT
  5
48C
  8
0
 62
     7
 10
8.6874138697000003
 20
3.6273259027999991
 30
0.0
 40
0.1
  1
2.962
 41
0.75
  7
SLDTEXTSTYLE2
  0
ENDBLK
  5
48E
  8
0
  0
BLOCK
  8
0
  2
_D_6
 70
     0
 10
0.0
 20
0.0
 30
0.0
  3
_D_6
  1

  0
SOLID
  5
230
  8
0
  6
CONTINUOUS
 62
     7
 10
8.8536638775000007
 20
4.1715347474999991
 30
0.0
 11
8.8666638775000006
 21
4.2495347475000003
 31
0.0
 12
8.8406638775000008
 22
4.2495347475000003
 32
0.0
 13
8.8406638775000008
 23
4.2495347475000003
 33
0.0
  0
SOLID
  5
231
  8
0
  6
CONTINUOUS
 62
     7
 10
8.8536638775000007
 20
6.3382014142000003
 30
0.0
 11
8.8406638775000008
 21
6.2602014141999991
 31
0.0
 12
8.8666638775000006
 22
6.2602014141999991
 32
0.0
 13
8.8666638775000006
 23
6.2602014141999991
 33
0.0
  0
LINE
  5
232
  8
0
  6
CONTINUOUS
 62
     7
 10
8.3991109932000008
 20
4.1715347474999991
 30
0.0
 11
8.9036638774999979
 21
4.1715347474999991
 31
0.0
  0
LINE
  5
233
  8
0
  6
CONTINUOUS
 62
     7
 10
8.3991109932000008
 20
6.3382014142000003
 30
0.0
 11
8.9036638774999979
 21
6.3382014142000003
 31
0.0
  0
LINE
  5
234
  8
0
  6
CONTINUOUS
 62
     7
 10
8.8536638775000007
 20
4.1715347474999991
 30
0.0
 11
8.8536638775000007
 21
5.1754930802999981
 31
0.0
  0
LINE
  5
235
  8
0
  6
CONTINUOUS
 62
     7
 10
8.8536638775000007
 20
6.3382014142000003
 30
0.0
 11
8.8536638775000007
 21
5.3342430813999986
 31
0.0
  0
INSERT
  5
236
  8
0
  2
*U18
 10
0.0
 20
0.0
 30
0.0
  0
ENDBLK
  5
237
  8
0
  0
BLOCK
  8
0
  2
*U18
 70
     1
 10
0.0
 20
0.0
 30
0.0
  3
*U18
  1

  0
TEXT
  5
490
  8
0
 62
     7
 10
8.6874138697000003
 20
5.2043998543000001
 30
0.0
 40
0.1
  1
6.500
 41
0.75
  7
SLDTEXTSTYLE2
  0
ENDBLK
  5
492
  8
0
  0
BLOCK
  8
0
  2
_D_7
 70
     0
 10
0.0
 20
0.0
 30
0.0
  3
_D_7
  1

  0
SOLID
  5
23A
  8
0
  6
CONTINUOUS
 62
     7
 10
9.3261048223999996
 20
3.1840535112000001
 30
0.0
 11
9.3391048223999995
 21
3.2620535111999991
 31
0.0
 12
9.3131048223999997
 22
3.2620535111999991
 32
0.0
 13
9.3131048223999997
 23
3.2620535111999991
 33
0.0
  0
SOLID
  5
23B
  8
0
  6
CONTINUOUS
 62
     7
 10
9.3261048223999996
 20
7.3256826504999983
 30
0.0
 11
9.3131048223999997
 21
7.2476826504999989
 31
0.0
 12
9.3391048223999995
 22
7.2476826504999989
 32
0.0
 13
9.3391048223999995
 23
7.2476826504999989
 33
0.0
  0
LINE
  5
23C
  8
0
  6
CONTINUOUS
 62
     7
 10
6.501629756799999
 20
3.1840535112000001
 30
0.0
 11
9.3761048224000003
 21
3.1840535112000001
 31
0.0
  0
LINE
  5
23D
  8
0
  6
CONTINUOUS
 62
     7
 10
6.501629756799999
 20
7.3256826504999983
 30
0.0
 11
9.3761048224000003
 21
7.3256826504999983
 31
0.0
  0
LINE
  5
23E
  8
0
  6
CONTINUOUS
 62
     7
 10
9.3261048223999996
 20
3.1840535112000001
 30
0.0
 11
9.3261048223999996
 21
5.1754930802999981
 31
0.0
  0
LINE
  5
23F
  8
0
  6
CONTINUOUS
 62
     7
 10
9.3261048223999996
 20
7.3256826504999983
 30
0.0
 11
9.3261048223999996
 21
5.3342430813999986
 31
0.0
  0
INSERT
  5
240
  8
0
  2
*U20
 10
0.0
 20
0.0
 30
0.0
  0
ENDBLK
  5
241
  8
0
  0
BLOCK
  8
0
  2
*U20
 70
     1
 10
0.0
 20
0.0
 30
0.0
  3
*U20
  1

  0
TEXT
  5
494
  8
0
 62
     7
 10
9.1229103663999993
 20
5.2043998543000001
 30
0.0
 40
0.1
  1
12.425
 41
0.75
  7
SLDTEXTSTYLE2
  0
ENDBLK
  5
496
  8
0
  0
BLOCK
  8
0
  2
_D_8
 70
     0
 10
0.0
 20
0.0
 30
0.0
  3
_D_8
  1

  0
SOLID
  5
244
  8
0
  6
CONTINUOUS
 62
     7
 10
1.984595636099999
 20
3.0882014141999989
 30
0.0
 11
1.9975956361
 21
3.1662014142000001
 31
0.0
 12
1.9715956361
 22
3.1662014142000001
 32
0.0
 13
1.9715956361
 23
3.1662014142000001
 33
0.0
  0
SOLID
  5
245
  8
0
  6
CONTINUOUS
 62
     7
 10
1.984595636099999
 20
7.4215347474999982
 30
0.0
 11
1.9715956361
 21
7.3435347474999988
 31
0.0
 12
1.9975956361
 22
7.3435347474999988
 32
0.0
 13
1.9975956361
 23
7.3435347474999988
 33
0.0
  0
LINE
  5
246
  8
0
  6
CONTINUOUS
 62
     7
 10
2.623296423499998
 20
3.0882014141999989
 30
0.0
 11
1.9345956361000001
 21
3.0882014141999989
 31
0.0
  0
LINE
  5
247
  8
0
  6
CONTINUOUS
 62
     7
 10
2.623296423499998
 20
7.4215347474999982
 30
0.0
 11
1.9345956361000001
 21
7.4215347474999982
 31
0.0
  0
LINE
  5
248
  8
0
  6
CONTINUOUS
 62
     7
 10
1.984595636099999
 20
3.0882014141999989
 30
0.0
 11
1.984595636099999
 21
5.1754930802999981
 31
0.0
  0
LINE
  5
249
  8
0
  6
CONTINUOUS
 62
     7
 10
1.984595636099999
 20
7.4215347474999982
 30
0.0
 11
1.984595636099999
 21
5.3342430813999986
 31
0.0
  0
INSERT
  5
24A
  8
0
  2
*U22
 10
0.0
 20
0.0
 30
0.0
  0
ENDBLK
  5
24B
  8
0
  0
BLOCK
  8
0
  2
*U22
 70
     1
 10
0.0
 20
0.0
 30
0.0
  3
*U22
  1

  0
TEXT
  5
498
  8
0
 62
     7
 10
1.78140118
 20
5.2043998543000001
 30
0.0
 40
0.1
  1
13.000
 41
0.75
  7
SLDTEXTSTYLE2
  0
ENDBLK
  5
49A
  8
0
  0
BLOCK
  8
0
  2
_D_9
 70
     0
 10
0.0
 20
0.0
 30
0.0
  3
_D_9
  1

  0
SOLID
  5
24E
  8
0
  6
CONTINUOUS
 62
     7
 10
2.3066297568
 20
7.6471168102
 30
0.0
 11
2.384629756799999
 21
7.6341168102000001
 31
0.0
 12
2.384629756799999
 22
7.660116810199999
 32
0.0
 13
2.384629756799999
 23
7.660116810199999
 33
0.0
  0
SOLID
  5
24F
  8
0
  6
CONTINUOUS
 62
     7
 10
8.4599630901000005
 20
7.6471168102
 30
0.0
 11
8.3819630900999975
 21
7.660116810199999
 31
0.0
 12
8.3819630900999975
 22
7.6341168102000001
 32
0.0
 13
8.3819630900999975
 23
7.6341168102000001
 33
0.0
  0
LINE
  5
250
  8
0
  6
CONTINUOUS
 62
     7
 10
2.3066297568
 20
7.1048680808000002
 30
0.0
 11
2.3066297568
 21
7.6971168101999989
 31
0.0
  0
LINE
  5
251
  8
0
  6
CONTINUOUS
 62
     7
 10
8.4599630901000005
 20
7.1048680808000002
 30
0.0
 11
8.4599630901000005
 21
7.6971168101999989
 31
0.0
  0
LINE
  5
252
  8
0
  6
CONTINUOUS
 62
     7
 10
2.3066297568
 20
7.6471168102
 30
0.0
 11
5.180101967399998
 21
7.6471168102
 31
0.0
  0
LINE
  5
253
  8
0
  6
CONTINUOUS
 62
     7
 10
8.4599630901000005
 20
7.6471168102
 30
0.0
 11
5.5864908795000003
 21
7.6471168102
 31
0.0
  0
INSERT
  5
254
  8
0
  2
*U24
 10
0.0
 20
0.0
 30
0.0
  0
ENDBLK
  5
255
  8
0
  0
BLOCK
  8
0
  2
*U24
 70
     1
 10
0.0
 20
0.0
 30
0.0
  3
*U24
  1

  0
TEXT
  5
49C
  8
0
 62
     7
 10
5.180101967399998
 20
7.5966485837000004
 30
0.0
 40
0.1
  1
18.460
 41
0.75
  7
SLDTEXTSTYLE2
  0
ENDBLK
  5
49E
  8
0
  0
BLOCK
  8
0
  2
_D_10
 70
     0
 10
0.0
 20
0.0
 30
0.0
  3
_D_10
  1

  0
SOLID
  5
258
  8
0
  6
CONTINUOUS
 62
     7
 10
2.4064755509000002
 20
7.3153384305999989
 30
0.0
 11
2.3596957020999989
 21
7.3790930048999979
 31
0.0
 12
2.341547183399999
 22
7.3604749688000002
 32
0.0
 13
2.341547183399999
 23
7.3604749688000002
 33
0.0
  0
LINE
  5
259
  8
0
  6
CONTINUOUS
 62
     7
 10
2.4064755509000002
 20
7.3153384305999989
 30
0.0
 11
1.9255294865000001
 21
7.7841557985999978
 31
0.0
  0
LINE
  5
25A
  8
0
  6
CONTINUOUS
 62
     7
 10
1.9255294865000001
 20
7.7841557985999978
 30
0.0
 11
1.825529486499998
 21
7.7841557985999978
 31
0.0
  0
INSERT
  5
25B
  8
0
  2
*U26
 10
0.0
 20
0.0
 30
0.0
  0
ENDBLK
  5
25C
  8
0
  0
BLOCK
  8
0
  2
*U26
 70
     1
 10
0.0
 20
0.0
 30
0.0
  3
*U26
  1

  0
TEXT
  5
4A0
  8
0
 62
     7
 10
1.4120572429
 20
7.7336875721
 30
0.0
 40
0.1
  1
R1.055
 41
0.75
  7
SLDTEXTSTYLE2
  0
ENDBLK
  5
4A2
  8
0
  0
BLOCK
  8
0
  2
SW_CENTERMARKSYMBOL_0
 70
     0
 10
0.0
 20
0.0
 30
0.0
  3
SW_CENTERMARKSYMBOL_0
  1

  0
LINE
  5
25F
  8
0
  6
CONTINUOUS
 62
     0
 10
0.0
 20
0.0
 30
0.0
 11
0.0
 21
0.0333333333
 31
0.0
  0
LINE
  5
260
  8
0
  6
CONTINUOUS
 62
     0
 10
0.0
 20
0.0
 30
0.0
 11
-0.0333333333
 21
0.0
 31
0.0
  0
LINE
  5
261
  8
0
  6
CONTINUOUS
 62
     0
 10
0.0
 20
0.0
 30
0.0
 11
0.0
 21
-0.0333333333
 31
0.0
  0
LINE
  5
262
  8
0
  6
CONTINUOUS
 62
     0
 10
0.0
 20
0.0
 30
0.0
 11
0.0333333333
 21
0.0
 31
0.0
  0
LINE
  5
263
  8
0
  6
CONTINUOUS
 62
     0
 10
-0.0666666667
 20
0.0
 30
0.0
 11
-0.0886666667
 21
0.0
 31
0.0
  0
LINE
  5
264
  8
0
  6
CONTINUOUS
 62
     0
 10
0.0
 20
-0.0666666667
 30
0.0
 11
0.0
 21
-0.0886666667
 31
0.0
  0
LINE
  5
265
  8
0
  6
CONTINUOUS
 62
     0
 10
5.9616291394000003
 20
0.0
 30
0.0
 11
5.9616291394000003
 21
0.0333333333
 31
0.0
  0
LINE
  5
266
  8
0
  6
CONTINUOUS
 62
     0
 10
5.9616291394000003
 20
0.0
 30
0.0
 11
5.9282958061000004
 21
0.0
 31
0.0
  0
LINE
  5
267
  8
0
  6
CONTINUOUS
 62
     0
 10
5.9616291394000003
 20
0.0
 30
0.0
 11
5.9616291394000003
 21
-0.0333333333
 31
0.0
  0
LINE
  5
268
  8
0
  6
CONTINUOUS
 62
     0
 10
5.9616291394000003
 20
0.0
 30
0.0
 11
5.9949624727000002
 21
0.0
 31
0.0
  0
LINE
  5
269
  8
0
  6
CONTINUOUS
 62
     0
 10
5.9616291394000003
 20
-0.0666666667
 30
0.0
 11
5.9616291394000003
 21
-0.0886666667
 31
0.0
  0
LINE
  5
26A
  8
0
  6
CONTINUOUS
 62
     0
 10
6.0282958061
 20
0.0
 30
0.0
 11
6.0502958061000003
 21
0.0
 31
0.0
  0
LINE
  5
26B
  8
0
  6
CONTINUOUS
 62
     0
 10
5.9616291394000003
 20
2.1666666666999981
 30
0.0
 11
5.9616291394000003
 21
2.2000000000000002
 31
0.0
  0
LINE
  5
26C
  8
0
  6
CONTINUOUS
 62
     0
 10
5.9616291394000003
 20
2.1666666666999981
 30
0.0
 11
5.9282958061000004
 21
2.1666666666999981
 31
0.0
  0
LINE
  5
26D
  8
0
  6
CONTINUOUS
 62
     0
 10
5.9616291394000003
 20
2.1666666666999981
 30
0.0
 11
5.9616291394000003
 21
2.1333333332999991
 31
0.0
  0
LINE
  5
26E
  8
0
  6
CONTINUOUS
 62
     0
 10
5.9616291394000003
 20
2.1666666666999981
 30
0.0
 11
5.9949624727000002
 21
2.1666666666999981
 31
0.0
  0
LINE
  5
26F
  8
0
  6
CONTINUOUS
 62
     0
 10
5.9616291394000003
 20
2.2333333333000001
 30
0.0
 11
5.9616291394000003
 21
2.255333333299999
 31
0.0
  0
LINE
  5
270
  8
0
  6
CONTINUOUS
 62
     0
 10
6.0282958061
 20
2.1666666666999981
 30
0.0
 11
6.0502958061000003
 21
2.1666666666999981
 31
0.0
  0
LINE
  5
271
  8
0
  6
CONTINUOUS
 62
     0
 10
0.0
 20
2.1666666666999981
 30
0.0
 11
0.0
 21
2.2000000000000002
 31
0.0
  0
LINE
  5
272
  8
0
  6
CONTINUOUS
 62
     0
 10
0.0
 20
2.1666666666999981
 30
0.0
 11
-0.0333333333
 21
2.1666666666999981
 31
0.0
  0
LINE
  5
273
  8
0
  6
CONTINUOUS
 62
     0
 10
0.0
 20
2.1666666666999981
 30
0.0
 11
0.0
 21
2.1333333332999991
 31
0.0
  0
LINE
  5
274
  8
0
  6
CONTINUOUS
 62
     0
 10
0.0
 20
2.1666666666999981
 30
0.0
 11
0.0333333333
 21
2.1666666666999981
 31
0.0
  0
LINE
  5
275
  8
0
  6
CONTINUOUS
 62
     0
 10
0.0
 20
2.2333333333000001
 30
0.0
 11
0.0
 21
2.255333333299999
 31
0.0
  0
LINE
  5
276
  8
0
  6
CONTINUOUS
 62
     0
 10
-0.0666666667
 20
2.1666666666999981
 30
0.0
 11
-0.0886666667
 21
2.1666666666999981
 31
0.0
  0
LINE
  5
277
  8
0
  6
CONTINUOUS
 62
     0
 10
1.8974812363999991
 20
-0.9874812364
 30
0.0
 11
1.8974812363999991
 21
-0.9541479029999999
 31
0.0
  0
LINE
  5
278
  8
0
  6
CONTINUOUS
 62
     0
 10
1.8974812363999991
 20
-0.9874812364
 30
0.0
 11
1.8641479030000001
 21
-0.9874812364
 31
0.0
  0
LINE
  5
279
  8
0
  6
CONTINUOUS
 62
     0
 10
1.8974812363999991
 20
-0.9874812364
 30
0.0
 11
1.8974812363999991
 21
-1.0208145696999991
 31
0.0
  0
LINE
  5
27A
  8
0
  6
CONTINUOUS
 62
     0
 10
1.8974812363999991
 20
-0.9874812364
 30
0.0
 11
1.9308145697000001
 21
-0.9874812364
 31
0.0
  0
LINE
  5
27B
  8
0
  6
CONTINUOUS
 62
     0
 10
1.8308145697
 20
-0.9874812364
 30
0.0
 11
1.8088145696999991
 21
-0.9874812364
 31
0.0
  0
LINE
  5
27C
  8
0
  6
CONTINUOUS
 62
     0
 10
1.8974812363999991
 20
-1.0541479030000001
 30
0.0
 11
1.8974812363999991
 21
-1.0761479030000001
 31
0.0
  0
LINE
  5
27D
  8
0
  6
CONTINUOUS
 62
     0
 10
4.0641479030000003
 20
-0.9874812364
 30
0.0
 11
4.0641479030000003
 21
-0.9541479029999999
 31
0.0
  0
LINE
  5
27E
  8
0
  6
CONTINUOUS
 62
     0
 10
4.0641479030000003
 20
-0.9874812364
 30
0.0
 11
4.0308145697000004
 21
-0.9874812364
 31
0.0
  0
LINE
  5
27F
  8
0
  6
CONTINUOUS
 62
     0
 10
4.0641479030000003
 20
-0.9874812364
 30
0.0
 11
4.0641479030000003
 21
-1.0208145696999991
 31
0.0
  0
LINE
  5
280
  8
0
  6
CONTINUOUS
 62
     0
 10
4.0641479030000003
 20
-0.9874812364
 30
0.0
 11
4.0974812364000002
 21
-0.9874812364
 31
0.0
  0
LINE
  5
281
  8
0
  6
CONTINUOUS
 62
     0
 10
4.0641479030000003
 20
-1.0541479030000001
 30
0.0
 11
4.0641479030000003
 21
-1.0761479030000001
 31
0.0
  0
LINE
  5
282
  8
0
  6
CONTINUOUS
 62
     0
 10
4.1308145697
 20
-0.9874812364
 30
0.0
 11
4.1528145697000003
 21
-0.9874812364
 31
0.0
  0
LINE
  5
283
  8
0
  6
CONTINUOUS
 62
     0
 10
1.8974812363999991
 20
3.1541479030000001
 30
0.0
 11
1.8974812363999991
 21
3.1874812364
 31
0.0
  0
LINE
  5
284
  8
0
  6
CONTINUOUS
 62
     0
 10
1.8974812363999991
 20
3.1541479030000001
 30
0.0
 11
1.8641479030000001
 21
3.1541479030000001
 31
0.0
  0
LINE
  5
285
  8
0
  6
CONTINUOUS
 62
     0
 10
1.8974812363999991
 20
3.1541479030000001
 30
0.0
 11
1.8974812363999991
 21
3.1208145696999989
 31
0.0
  0
LINE
  5
286
  8
0
  6
CONTINUOUS
 62
     0
 10
1.8974812363999991
 20
3.1541479030000001
 30
0.0
 11
1.9308145697000001
 21
3.1541479030000001
 31
0.0
  0
LINE
  5
287
  8
0
  6
CONTINUOUS
 62
     0
 10
1.8974812363999991
 20
3.220814569699999
 30
0.0
 11
1.8974812363999991
 21
3.2428145697000001
 31
0.0
  0
LINE
  5
288
  8
0
  6
CONTINUOUS
 62
     0
 10
1.8308145697
 20
3.1541479030000001
 30
0.0
 11
1.8088145696999991
 21
3.1541479030000001
 31
0.0
  0
LINE
  5
289
  8
0
  6
CONTINUOUS
 62
     0
 10
4.0641479030000003
 20
3.1541479030000001
 30
0.0
 11
4.0641479030000003
 21
3.1874812364
 31
0.0
  0
LINE
  5
28A
  8
0
  6
CONTINUOUS
 62
     0
 10
4.0641479030000003
 20
3.1541479030000001
 30
0.0
 11
4.0308145697000004
 21
3.1541479030000001
 31
0.0
  0
LINE
  5
28B
  8
0
  6
CONTINUOUS
 62
     0
 10
4.0641479030000003
 20
3.1541479030000001
 30
0.0
 11
4.0641479030000003
 21
3.1208145696999989
 31
0.0
  0
LINE
  5
28C
  8
0
  6
CONTINUOUS
 62
     0
 10
4.0641479030000003
 20
3.1541479030000001
 30
0.0
 11
4.0974812364000002
 21
3.1541479030000001
 31
0.0
  0
LINE
  5
28D
  8
0
  6
CONTINUOUS
 62
     0
 10
4.0641479030000003
 20
3.220814569699999
 30
0.0
 11
4.0641479030000003
 21
3.2428145697000001
 31
0.0
  0
LINE
  5
28E
  8
0
  6
CONTINUOUS
 62
     0
 10
4.1308145697
 20
3.1541479030000001
 30
0.0
 11
4.1528145697000003
 21
3.1541479030000001
 31
0.0
  0
LINE
  5
28F
  8
0
  6
CENTERX2
 62
     0
 10
0.0666666667
 20
0.0
 30
0.0
 11
5.8949624726999987
 21
0.0
 31
0.0
  0
LINE
  5
290
  8
0
  6
CENTERX2
 62
     0
 10
5.9616291394000003
 20
0.0666666667
 30
0.0
 11
5.9616291394000003
 21
2.1000000000000001
 31
0.0
  0
LINE
  5
291
  8
0
  6
CENTERX2
 62
     0
 10
0.0666666667
 20
2.1666666666999981
 30
0.0
 11
5.8949624726999987
 21
2.1666666666999981
 31
0.0
  0
LINE
  5
292
  8
0
  6
CENTERX2
 62
     0
 10
0.0
 20
0.0666666667
 30
0.0
 11
0.0
 21
2.1000000000000001
 31
0.0
  0
LINE
  5
293
  8
0
  6
CENTERX2
 62
     0
 10
1.964147903
 20
-0.9874812364
 30
0.0
 11
3.9974812363999992
 21
-0.9874812364
 31
0.0
  0
LINE
  5
294
  8
0
  6
CENTERX2
 62
     0
 10
1.8974812363999991
 20
-0.9208145696999999
 30
0.0
 11
1.8974812363999991
 21
3.0874812363999991
 31
0.0
  0
LINE
  5
295
  8
0
  6
CENTERX2
 62
     0
 10
1.964147903
 20
3.1541479030000001
 30
0.0
 11
3.9974812363999992
 21
3.1541479030000001
 31
0.0
  0
LINE
  5
296
  8
0
  6
CENTERX2
 62
     0
 10
4.0641479030000003
 20
-0.9208145696999999
 30
0.0
 11
4.0641479030000003
 21
3.0874812363999991
 31
0.0
  0
ENDBLK
  5
297
  8
0
  0
BLOCK
  8
0
  2
*D28
 70
     1
 10
0.0
 20
0.0
 30
0.0
  3
*D28
  1

  0
LINE
  5
37C
  8
0
  6
CONTINUOUS
 62
     0
 10
0.5195896293979705
 20
0.8501829918751898
 30
0.0
 11
0.5195896293979705
 21
0.3585525294751899
 31
0.0
  0
LINE
  5
37D
  8
0
  6
CONTINUOUS
 62
     0
 10
0.6154417263979704
 20
1.5818496585751891
 30
0.0
 11
0.6154417263979704
 21
0.3585525294751899
 31
0.0
  0
LINE
  5
37E
  8
0
  6
CONTINUOUS
 62
     0
 10
0.6934417263979702
 20
0.3585525294751899
 30
0.0
 11
0.7714417263979703
 21
0.3585525294751899
 31
0.0
  0
LINE
  5
37F
  8
0
  6
CONTINUOUS
 62
     0
 10
0.4415896293979705
 20
0.3585525294751899
 30
0.0
 11
0.2633888419979705
 21
0.3585525294751899
 31
0.0
  0
LINE
  5
380
  8
0
  6
CONTINUOUS
 62
     0
 10
0.6154417263979704
 20
0.3585525294751899
 30
0.0
 11
0.5195896293979705
 21
0.3585525294751899
 31
0.0
  0
SOLID
  5
381
  8
0
  6
CONTINUOUS
 62
     0
 10
0.6934417263979702
 20
0.3715525294751899
 30
0.0
 11
0.6934417263979702
 21
0.3455525294751899
 31
0.0
 12
0.6154417263979704
 22
0.3585525294751899
 32
0.0
 13
0.6154417263979704
 23
0.3585525294751899
 33
0.0
  0
SOLID
  5
382
  8
0
  6
CONTINUOUS
 62
     0
 10
0.4415896293979705
 20
0.3715525294751899
 30
0.0
 11
0.4415896293979705
 21
0.3455525294751899
 31
0.0
 12
0.5195896293979705
 22
0.3585525294751899
 32
0.0
 13
0.5195896293979705
 23
0.3585525294751899
 33
0.0
  0
INSERT
  5
383
  8
0
  2
*U29
 10
0.0
 20
0.0
 30
0.0
  0
POINT
  5
384
  8
DEFPOINTS
  6
CONTINUOUS
 62
     0
 10
0.5195896293979705
 20
0.9126829918751898
 30
0.0
  0
POINT
  5
385
  8
DEFPOINTS
  6
CONTINUOUS
 62
     0
 10
0.6154417263979704
 20
1.6443496585751891
 30
0.0
  0
POINT
  5
386
  8
DEFPOINTS
  6
CONTINUOUS
 62
     0
 10
0.6154417263979704
 20
0.3585525294751899
 30
0.0
  0
ENDBLK
  5
2F0
  8
0
  0
BLOCK
  8
0
  2
*U29
 70
     1
 10
0.0
 20
0.0
 30
0.0
  3
*U29
  1

  0
TEXT
  5
4A4
  8
0
 62
     0
 10
0.0133888419979705
 20
0.3085525294751898
 30
0.0
 40
0.1
  1
.288
 41
0.75
  7
SLDTEXTSTYLE2
  0
ENDBLK
  5
4A6
  8
0
  0
BLOCK
  8
0
  2
*D30
 70
     1
 10
0.0
 20
0.0
 30
0.0
  3
*D30
  1

  0
LINE
  5
387
  8
0
  6
CONTINUOUS
 62
     0
 10
0.6154417263979704
 20
1.5818496585751891
 30
0.0
 11
0.6154417263979704
 21
0.3585525294751899
 31
0.0
  0
LINE
  5
388
  8
0
  6
CONTINUOUS
 62
     0
 10
2.512922962697969
 20
0.5943684222751902
 30
0.0
 11
2.512922962697969
 21
0.3585525294751899
 31
0.0
  0
LINE
  5
389
  8
0
  6
CONTINUOUS
 62
     0
 10
0.6934417263979702
 20
0.3585525294751899
 30
0.0
 11
1.3891823444979701
 21
0.3585525294751899
 31
0.0
  0
LINE
  5
38A
  8
0
  6
CONTINUOUS
 62
     0
 10
2.43492296269797
 20
0.3585525294751899
 30
0.0
 11
1.739182344497969
 21
0.3585525294751899
 31
0.0
  0
SOLID
  5
38B
  8
0
  6
CONTINUOUS
 62
     0
 10
0.6934417263979702
 20
0.3715525294751899
 30
0.0
 11
0.6934417263979702
 21
0.3455525294751899
 31
0.0
 12
0.6154417263979704
 22
0.3585525294751899
 32
0.0
 13
0.6154417263979704
 23
0.3585525294751899
 33
0.0
  0
SOLID
  5
38C
  8
0
  6
CONTINUOUS
 62
     0
 10
2.43492296269797
 20
0.3715525294751899
 30
0.0
 11
2.43492296269797
 21
0.3455525294751899
 31
0.0
 12
2.512922962697969
 22
0.3585525294751899
 32
0.0
 13
2.512922962697969
 23
0.3585525294751899
 33
0.0
  0
INSERT
  5
38D
  8
0
  2
*U31
 10
0.0
 20
0.0
 30
0.0
  0
POINT
  5
38E
  8
DEFPOINTS
  6
CONTINUOUS
 62
     0
 10
0.6154417263979704
 20
1.6443496585751891
 30
0.0
  0
POINT
  5
38F
  8
DEFPOINTS
  6
CONTINUOUS
 62
     0
 10
2.512922962697969
 20
0.6568684222751902
 30
0.0
  0
POINT
  5
390
  8
DEFPOINTS
  6
CONTINUOUS
 62
     0
 10
2.512922962697969
 20
0.3585525294751899
 30
0.0
  0
ENDBLK
  5
2FE
  8
0
  0
BLOCK
  8
0
  2
*U31
 70
     1
 10
0.0
 20
0.0
 30
0.0
  3
*U31
  1

  0
TEXT
  5
4A8
  8
0
 62
     0
 10
1.4141823444979691
 20
0.3085525294751898
 30
0.0
 40
0.1
  1
5.692
 41
0.75
  7
SLDTEXTSTYLE2
  0
ENDBLK
  5
4AA
  8
0
  0
BLOCK
  8
0
  2
*D32
 70
     1
 10
0.0
 20
0.0
 30
0.0
  3
*D32
  1

  0
LINE
  5
391
  8
0
  6
CONTINUOUS
 62
     0
 10
2.512922962697969
 20
0.5943684222751902
 30
0.0
 11
2.512922962697969
 21
0.3585525294751899
 31
0.0
  0
LINE
  5
392
  8
0
  6
CONTINUOUS
 62
     0
 10
4.6795896293979693
 20
0.5943684222751902
 30
0.0
 11
4.6795896293979693
 21
0.3585525294751899
 31
0.0
  0
LINE
  5
393
  8
0
  6
CONTINUOUS
 62
     0
 10
2.5909229626979702
 20
0.3585525294751899
 30
0.0
 11
3.4337562960979691
 21
0.3585525294751899
 31
0.0
  0
LINE
  5
394
  8
0
  6
CONTINUOUS
 62
     0
 10
4.601589629397969
 20
0.3585525294751899
 30
0.0
 11
3.7587562960979688
 21
0.3585525294751899
 31
0.0
  0
SOLID
  5
395
  8
0
  6
CONTINUOUS
 62
     0
 10
2.5909229626979702
 20
0.3715525294751899
 30
0.0
 11
2.5909229626979702
 21
0.3455525294751899
 31
0.0
 12
2.512922962697969
 22
0.3585525294751899
 32
0.0
 13
2.512922962697969
 23
0.3585525294751899
 33
0.0
  0
SOLID
  5
396
  8
0
  6
CONTINUOUS
 62
     0
 10
4.601589629397969
 20
0.3715525294751899
 30
0.0
 11
4.601589629397969
 21
0.3455525294751899
 31
0.0
 12
4.6795896293979693
 22
0.3585525294751899
 32
0.0
 13
4.6795896293979693
 23
0.3585525294751899
 33
0.0
  0
INSERT
  5
397
  8
0
  2
*U33
 10
0.0
 20
0.0
 30
0.0
  0
POINT
  5
398
  8
DEFPOINTS
  6
CONTINUOUS
 62
     0
 10
2.512922962697969
 20
0.6568684222751902
 30
0.0
  0
POINT
  5
399
  8
DEFPOINTS
  6
CONTINUOUS
 62
     0
 10
4.6795896293979693
 20
0.6568684222751902
 30
0.0
  0
POINT
  5
39A
  8
DEFPOINTS
  6
CONTINUOUS
 62
     0
 10
4.6795896293979693
 20
0.3585525294751899
 30
0.0
  0
ENDBLK
  5
30B
  8
0
  0
BLOCK
  8
0
  2
*U33
 70
     1
 10
0.0
 20
0.0
 30
0.0
  3
*U33
  1

  0
TEXT
  5
4AC
  8
0
 62
     0
 10
3.458756296097969
 20
0.3085525294751898
 30
0.0
 40
0.1
  1
6.500
 41
0.75
  7
SLDTEXTSTYLE2
  0
ENDBLK
  5
4AE
  8
0
  0
BLOCK
  8
0
  2
*D34
 70
     1
 10
0.0
 20
0.0
 30
0.0
  3
*D34
  1

  0
LINE
  5
39B
  8
0
  6
CONTINUOUS
 62
     0
 10
0.6154417263979704
 20
1.5818496585751891
 30
0.0
 11
0.6154417263979704
 21
0.16731553787519
 31
0.0
  0
LINE
  5
39C
  8
0
  6
CONTINUOUS
 62
     0
 10
6.5770708657979711
 20
1.5818496585751891
 30
0.0
 11
6.5770708657979711
 21
0.16731553787519
 31
0.0
  0
LINE
  5
39D
  8
0
  6
CONTINUOUS
 62
     0
 10
0.6934417263979702
 20
0.16731553787519
 30
0.0
 11
3.396256296097969
 21
0.16731553787519
 31
0.0
  0
LINE
  5
39E
  8
0
  6
CONTINUOUS
 62
     0
 10
6.499070865797969
 20
0.16731553787519
 30
0.0
 11
3.7962562960979689
 21
0.16731553787519
 31
0.0
  0
SOLID
  5
39F
  8
0
  6
CONTINUOUS
 62
     0
 10
0.6934417263979702
 20
0.1803155378751901
 30
0.0
 11
0.6934417263979702
 21
0.15431553787519
 31
0.0
 12
0.6154417263979704
 22
0.16731553787519
 32
0.0
 13
0.6154417263979704
 23
0.16731553787519
 33
0.0
  0
SOLID
  5
3A0
  8
0
  6
CONTINUOUS
 62
     0
 10
6.499070865797969
 20
0.1803155378751901
 30
0.0
 11
6.499070865797969
 21
0.15431553787519
 31
0.0
 12
6.5770708657979711
 22
0.16731553787519
 32
0.0
 13
6.5770708657979711
 23
0.16731553787519
 33
0.0
  0
INSERT
  5
3A1
  8
0
  2
*U35
 10
0.0
 20
0.0
 30
0.0
  0
POINT
  5
3A2
  8
DEFPOINTS
  6
CONTINUOUS
 62
     0
 10
0.6154417263979704
 20
1.6443496585751891
 30
0.0
  0
POINT
  5
3A3
  8
DEFPOINTS
  6
CONTINUOUS
 62
     0
 10
6.5770708657979711
 20
1.6443496585751891
 30
0.0
  0
POINT
  5
3A4
  8
DEFPOINTS
  6
CONTINUOUS
 62
     0
 10
6.5770708657979711
 20
0.16731553787519
 30
0.0
  0
ENDBLK
  5
318
  8
0
  0
BLOCK
  8
0
  2
*U35
 70
     1
 10
0.0
 20
0.0
 30
0.0
  3
*U35
  1

  0
TEXT
  5
4B0
  8
0
 62
     0
 10
3.4212562960979702
 20
0.11731553787519
 30
0.0
 40
0.1
  1
17.885
 41
0.75
  7
SLDTEXTSTYLE2
  0
ENDBLK
  5
4B2
  8
0
  0
BLOCK
  8
0
  2
*D36
 70
     1
 10
0.0
 20
0.0
 30
0.0
  3
*D36
  1

  0
LINE
  5
3A5
  8
0
  6
CONTINUOUS
 62
     0
 10
6.383756296097971
 20
0.5610163252751903
 30
0.0
 11
7.282123750097969
 21
0.56101632527519
 31
0.0
  0
LINE
  5
3A6
  8
0
  6
CONTINUOUS
 62
     0
 10
4.7420896293979693
 20
0.6568684222751902
 30
0.0
 11
7.282123750097969
 21
0.6568684222751894
 31
0.0
  0
LINE
  5
3A7
  8
0
  6
CONTINUOUS
 62
     0
 10
7.282123750097969
 20
0.7348684222751895
 30
0.0
 11
7.282123750097969
 21
0.8128684222751893
 31
0.0
  0
LINE
  5
3A8
  8
0
  6
CONTINUOUS
 62
     0
 10
7.282123750097969
 20
0.48301632527519
 30
0.0
 11
7.282123750097969
 21
0.3585525294751886
 31
0.0
  0
LINE
  5
3A9
  8
0
  6
CONTINUOUS
 62
     0
 10
7.282123750097969
 20
0.3585525294751886
 30
0.0
 11
7.2041237500979713
 21
0.3585525294751886
 31
0.0
  0
LINE
  5
3AA
  8
0
  6
CONTINUOUS
 62
     0
 10
7.282123750097969
 20
0.6568684222751894
 30
0.0
 11
7.282123750097969
 21
0.56101632527519
 31
0.0
  0
SOLID
  5
3AB
  8
0
  6
CONTINUOUS
 62
     0
 10
7.26912375009797
 20
0.7348684222751895
 30
0.0
 11
7.2951237500979689
 21
0.7348684222751895
 31
0.0
 12
7.282123750097969
 22
0.6568684222751894
 32
0.0
 13
7.282123750097969
 23
0.6568684222751894
 33
0.0
  0
SOLID
  5
3AC
  8
0
  6
CONTINUOUS
 62
     0
 10
7.26912375009797
 20
0.48301632527519
 30
0.0
 11
7.2951237500979689
 21
0.48301632527519
 31
0.0
 12
7.282123750097969
 22
0.56101632527519
 32
0.0
 13
7.282123750097969
 23
0.56101632527519
 33
0.0
  0
INSERT
  5
3AD
  8
0
  2
*U37
 10
0.0
 20
0.0
 30
0.0
  0
POINT
  5
3AE
  8
DEFPOINTS
  6
CONTINUOUS
 62
     0
 10
6.321256296097971
 20
0.5610163252751903
 30
0.0
  0
POINT
  5
3AF
  8
DEFPOINTS
  6
CONTINUOUS
 62
     0
 10
4.6795896293979693
 20
0.6568684222751902
 30
0.0
  0
POINT
  5
3B0
  8
DEFPOINTS
  6
CONTINUOUS
 62
     0
 10
7.282123750097969
 20
0.6568684222751894
 30
0.0
  0
ENDBLK
  5
325
  8
0
  0
BLOCK
  8
0
  2
*U37
 70
     1
 10
0.0
 20
0.0
 30
0.0
  3
*U37
  1

  0
TEXT
  5
4B4
  8
0
 62
     0
 10
6.9541237500979713
 20
0.3085525294751898
 30
0.0
 40
0.1
  1
.288
 41
0.75
  7
SLDTEXTSTYLE2
  0
ENDBLK
  5
4B6
  8
0
  0
BLOCK
  8
0
  2
*D38
 70
     1
 10
0.0
 20
0.0
 30
0.0
  3
*D38
  1

  0
LINE
  5
3B1
  8
0
  6
CONTINUOUS
 62
     0
 10
4.7420896293979693
 20
0.6568684222751902
 30
0.0
 11
7.0666237500979712
 21
0.6568684222751895
 31
0.0
  0
LINE
  5
3B2
  8
0
  6
CONTINUOUS
 62
     0
 10
6.6395708657979711
 20
1.6443496585751891
 30
0.0
 11
7.0666237500979712
 21
1.6443496585751891
 31
0.0
  0
LINE
  5
3B3
  8
0
  6
CONTINUOUS
 62
     0
 10
7.0666237500979712
 20
0.7348684222751895
 30
0.0
 11
7.0666237500979712
 21
1.075609040375189
 31
0.0
  0
LINE
  5
3B4
  8
0
  6
CONTINUOUS
 62
     0
 10
7.0666237500979712
 20
1.5663496585751879
 30
0.0
 11
7.0666237500979712
 21
1.225609040375188
 31
0.0
  0
SOLID
  5
3B5
  8
0
  6
CONTINUOUS
 62
     0
 10
7.0536237500979713
 20
0.7348684222751895
 30
0.0
 11
7.0796237500979711
 21
0.7348684222751895
 31
0.0
 12
7.0666237500979712
 22
0.6568684222751895
 32
0.0
 13
7.0666237500979712
 23
0.6568684222751895
 33
0.0
  0
SOLID
  5
3B6
  8
0
  6
CONTINUOUS
 62
     0
 10
7.0536237500979713
 20
1.5663496585751879
 30
0.0
 11
7.0796237500979711
 21
1.5663496585751879
 31
0.0
 12
7.0666237500979712
 22
1.6443496585751891
 32
0.0
 13
7.0666237500979712
 23
1.6443496585751891
 33
0.0
  0
INSERT
  5
3B7
  8
0
  2
*U39
 10
0.0
 20
0.0
 30
0.0
  0
POINT
  5
3B8
  8
DEFPOINTS
  6
CONTINUOUS
 62
     0
 10
4.6795896293979693
 20
0.6568684222751902
 30
0.0
  0
POINT
  5
3B9
  8
DEFPOINTS
  6
CONTINUOUS
 62
     0
 10
6.5770708657979711
 20
1.6443496585751891
 30
0.0
  0
POINT
  5
3BA
  8
DEFPOINTS
  6
CONTINUOUS
 62
     0
 10
7.0666237500979712
 20
1.6443496585751891
 30
0.0
  0
ENDBLK
  5
334
  8
0
  0
BLOCK
  8
0
  2
*U39
 70
     1
 10
0.0
 20
0.0
 30
0.0
  3
*U39
  1

  0
TEXT
  5
4B8
  8
0
 62
     0
 10
6.916623750097969
 20
1.10060904037519
 30
0.0
 40
0.1
  1
2.962
 41
0.75
  7
SLDTEXTSTYLE2
  0
ENDBLK
  5
4BA
  8
0
  0
BLOCK
  8
0
  2
*D40
 70
     1
 10
0.0
 20
0.0
 30
0.0
  3
*D40
  1

  0
LINE
  5
3BB
  8
0
  6
CONTINUOUS
 62
     0
 10
6.6395708657979711
 20
1.6443496585751891
 30
0.0
 11
7.0666237500979712
 21
1.6443496585751891
 31
0.0
  0
LINE
  5
3BC
  8
0
  6
CONTINUOUS
 62
     0
 10
6.6395708657979711
 20
3.8110163252751881
 30
0.0
 11
7.0666237500979721
 21
3.8110163252751881
 31
0.0
  0
LINE
  5
3BD
  8
0
  6
CONTINUOUS
 62
     0
 10
7.0666237500979712
 20
1.7223496585751901
 30
0.0
 11
7.0666237500979721
 21
2.6526829918751882
 31
0.0
  0
LINE
  5
3BE
  8
0
  6
CONTINUOUS
 62
     0
 10
7.0666237500979721
 20
3.7330163252751878
 30
0.0
 11
7.0666237500979721
 21
2.8026829918751881
 31
0.0
  0
SOLID
  5
3BF
  8
0
  6
CONTINUOUS
 62
     0
 10
7.0536237500979713
 20
1.7223496585751901
 30
0.0
 11
7.0796237500979711
 21
1.7223496585751901
 31
0.0
 12
7.0666237500979712
 22
1.6443496585751891
 32
0.0
 13
7.0666237500979712
 23
1.6443496585751891
 33
0.0
  0
SOLID
  5
3C0
  8
0
  6
CONTINUOUS
 62
     0
 10
7.0536237500979722
 20
3.7330163252751878
 30
0.0
 11
7.0796237500979711
 21
3.7330163252751878
 31
0.0
 12
7.0666237500979721
 22
3.8110163252751881
 32
0.0
 13
7.0666237500979721
 23
3.8110163252751881
 33
0.0
  0
INSERT
  5
3C1
  8
0
  2
*U41
 10
0.0
 20
0.0
 30
0.0
  0
POINT
  5
3C2
  8
DEFPOINTS
  6
CONTINUOUS
 62
     0
 10
6.5770708657979711
 20
1.6443496585751891
 30
0.0
  0
POINT
  5
3C3
  8
DEFPOINTS
  6
CONTINUOUS
 62
     0
 10
6.5770708657979711
 20
3.8110163252751881
 30
0.0
  0
POINT
  5
3C4
  8
DEFPOINTS
  6
CONTINUOUS
 62
     0
 10
7.0666237500979721
 20
3.8110163252751881
 30
0.0
  0
ENDBLK
  5
341
  8
0
  0
BLOCK
  8
0
  2
*U41
 70
     1
 10
0.0
 20
0.0
 30
0.0
  3
*U41
  1

  0
TEXT
  5
4BC
  8
0
 62
     0
 10
6.9291237500979692
 20
2.6776829918751881
 30
0.0
 40
0.1
  1
6.500
 41
0.75
  7
SLDTEXTSTYLE2
  0
ENDBLK
  5
4BE
  8
0
  0
BLOCK
  8
0
  2
*D42
 70
     1
 10
0.0
 20
0.0
 30
0.0
  3
*D42
  1

  0
LINE
  5
3C5
  8
0
  6
CONTINUOUS
 62
     0
 10
4.7420896293979693
 20
0.6568684222751902
 30
0.0
 11
7.5390646949979692
 21
0.6568684222751893
 31
0.0
  0
LINE
  5
3C6
  8
0
  6
CONTINUOUS
 62
     0
 10
4.7420896293979693
 20
4.7984975615751884
 30
0.0
 11
7.5390646949979692
 21
4.7984975615751884
 31
0.0
  0
LINE
  5
3C7
  8
0
  6
CONTINUOUS
 62
     0
 10
7.5390646949979692
 20
0.7348684222751892
 30
0.0
 11
7.5390646949979692
 21
2.6526829918751882
 31
0.0
  0
LINE
  5
3C8
  8
0
  6
CONTINUOUS
 62
     0
 10
7.5390646949979692
 20
4.7204975615751881
 30
0.0
 11
7.5390646949979692
 21
2.8026829918751881
 31
0.0
  0
SOLID
  5
3C9
  8
0
  6
CONTINUOUS
 62
     0
 10
7.5260646949979693
 20
0.7348684222751892
 30
0.0
 11
7.5520646949979691
 21
0.7348684222751892
 31
0.0
 12
7.5390646949979692
 22
0.6568684222751893
 32
0.0
 13
7.5390646949979692
 23
0.6568684222751893
 33
0.0
  0
SOLID
  5
3CA
  8
0
  6
CONTINUOUS
 62
     0
 10
7.526064694997971
 20
4.7204975615751881
 30
0.0
 11
7.5520646949979691
 21
4.7204975615751881
 31
0.0
 12
7.5390646949979692
 22
4.7984975615751884
 32
0.0
 13
7.5390646949979692
 23
4.7984975615751884
 33
0.0
  0
INSERT
  5
3CB
  8
0
  2
*U43
 10
0.0
 20
0.0
 30
0.0
  0
POINT
  5
3CC
  8
DEFPOINTS
  6
CONTINUOUS
 62
     0
 10
4.6795896293979693
 20
0.6568684222751902
 30
0.0
  0
POINT
  5
3CD
  8
DEFPOINTS
  6
CONTINUOUS
 62
     0
 10
4.6795896293979693
 20
4.7984975615751884
 30
0.0
  0
POINT
  5
3CE
  8
DEFPOINTS
  6
CONTINUOUS
 62
     0
 10
7.5390646949979692
 20
4.7984975615751884
 30
0.0
  0
ENDBLK
  5
34E
  8
0
  0
BLOCK
  8
0
  2
*U43
 70
     1
 10
0.0
 20
0.0
 30
0.0
  3
*U43
  1

  0
TEXT
  5
4C0
  8
0
 62
     0
 10
7.3640646949979693
 20
2.6776829918751881
 30
0.0
 40
0.1
  1
12.425
 41
0.75
  7
SLDTEXTSTYLE2
  0
ENDBLK
  5
4C2
  8
0
  0
BLOCK
  8
0
  2
*D44
 70
     1
 10
0.0
 20
0.0
 30
0.0
  3
*D44
  1

  0
LINE
  5
3CF
  8
0
  6
CONTINUOUS
 62
     0
 10
0.8087562960979703
 20
0.5610163252751903
 30
0.0
 11
0.1975555086979706
 21
0.5610163252751905
 31
0.0
  0
LINE
  5
3D0
  8
0
  6
CONTINUOUS
 62
     0
 10
0.8087562960979703
 20
4.8943496585751891
 30
0.0
 11
0.1975555086979714
 21
4.8943496585751891
 31
0.0
  0
LINE
  5
3D1
  8
0
  6
CONTINUOUS
 62
     0
 10
0.1975555086979705
 20
0.6390163252751905
 30
0.0
 11
0.197555508697971
 21
2.6526829918751882
 31
0.0
  0
LINE
  5
3D2
  8
0
  6
CONTINUOUS
 62
     0
 10
0.1975555086979715
 20
4.8163496585751879
 30
0.0
 11
0.197555508697971
 21
2.8026829918751881
 31
0.0
  0
SOLID
  5
3D3
  8
0
  6
CONTINUOUS
 62
     0
 10
0.1845555086979705
 20
0.6390163252751905
 30
0.0
 11
0.2105555086979705
 21
0.6390163252751905
 31
0.0
 12
0.1975555086979705
 22
0.5610163252751905
 32
0.0
 13
0.1975555086979705
 23
0.5610163252751905
 33
0.0
  0
SOLID
  5
3D4
  8
0
  6
CONTINUOUS
 62
     0
 10
0.1845555086979715
 20
4.8163496585751879
 30
0.0
 11
0.2105555086979715
 21
4.8163496585751879
 31
0.0
 12
0.1975555086979715
 22
4.8943496585751891
 32
0.0
 13
0.1975555086979715
 23
4.8943496585751891
 33
0.0
  0
INSERT
  5
3D5
  8
0
  2
*U45
 10
0.0
 20
0.0
 30
0.0
  0
POINT
  5
3D6
  8
DEFPOINTS
  6
CONTINUOUS
 62
     0
 10
0.8712562960979703
 20
0.5610163252751903
 30
0.0
  0
POINT
  5
3D7
  8
DEFPOINTS
  6
CONTINUOUS
 62
     0
 10
0.8712562960979703
 20
4.8943496585751891
 30
0.0
  0
POINT
  5
3D8
  8
DEFPOINTS
  6
CONTINUOUS
 62
     0
 10
0.1975555086979715
 20
4.8943496585751891
 30
0.0
  0
ENDBLK
  5
35B
  8
0
  0
BLOCK
  8
0
  2
*U45
 70
     1
 10
0.0
 20
0.0
 30
0.0
  3
*U45
  1

  0
TEXT
  5
4C4
  8
0
 62
     0
 10
0.0413055086979705
 20
2.6776829918751881
 30
0.0
 40
0.1
  1
13.000
 41
0.75
  7
SLDTEXTSTYLE2
  0
ENDBLK
  5
4C6
  8
0
  0
BLOCK
  8
0
  2
*D46
 70
     1
 10
0.0
 20
0.0
 30
0.0
  3
*D46
  1

  0
LINE
  5
3D9
  8
0
  6
CONTINUOUS
 62
     0
 10
0.5195896293979705
 20
4.6051829918751901
 30
0.0
 11
0.5195896293979705
 21
5.11993172127519
 31
0.0
  0
LINE
  5
3DA
  8
0
  6
CONTINUOUS
 62
     0
 10
6.67292296269797
 20
4.6051829918751901
 30
0.0
 11
6.67292296269797
 21
5.11993172127519
 31
0.0
  0
LINE
  5
3DB
  8
0
  6
CONTINUOUS
 62
     0
 10
0.5975896293979705
 20
5.11993172127519
 30
0.0
 11
3.4025062960979691
 21
5.11993172127519
 31
0.0
  0
LINE
  5
3DC
  8
0
  6
CONTINUOUS
 62
     0
 10
6.5949229626979688
 20
5.11993172127519
 30
0.0
 11
3.7900062960979688
 21
5.11993172127519
 31
0.0
  0
SOLID
  5
3DD
  8
0
  6
CONTINUOUS
 62
     0
 10
0.5975896293979705
 20
5.1329317212751882
 30
0.0
 11
0.5975896293979705
 21
5.1069317212751901
 31
0.0
 12
0.5195896293979705
 22
5.11993172127519
 32
0.0
 13
0.5195896293979705
 23
5.11993172127519
 33
0.0
  0
SOLID
  5
3DE
  8
0
  6
CONTINUOUS
 62
     0
 10
6.5949229626979688
 20
5.1329317212751882
 30
0.0
 11
6.5949229626979688
 21
5.1069317212751901
 31
0.0
 12
6.67292296269797
 22
5.11993172127519
 32
0.0
 13
6.67292296269797
 23
5.11993172127519
 33
0.0
  0
INSERT
  5
3DF
  8
0
  2
*U47
 10
0.0
 20
0.0
 30
0.0
  0
POINT
  5
3E0
  8
DEFPOINTS
  6
CONTINUOUS
 62
     0
 10
0.5195896293979705
 20
4.5426829918751901
 30
0.0
  0
POINT
  5
3E1
  8
DEFPOINTS
  6
CONTINUOUS
 62
     0
 10
6.67292296269797
 20
4.5426829918751901
 30
0.0
  0
POINT
  5
3E2
  8
DEFPOINTS
  6
CONTINUOUS
 62
     0
 10
6.67292296269797
 20
5.11993172127519
 30
0.0
  0
ENDBLK
  5
368
  8
0
  0
BLOCK
  8
0
  2
*U47
 70
     1
 10
0.0
 20
0.0
 30
0.0
  3
*U47
  1

  0
TEXT
  5
4C8
  8
0
 62
     0
 10
3.427506296097969
 20
5.0699317212751902
 30
0.0
 40
0.1
  1
18.460
 41
0.75
  7
SLDTEXTSTYLE2
  0
ENDBLK
  5
4CA
  8
0
  0
BLOCK
  8
0
  2
*D48
 70
     1
 10
0.0
 20
0.0
 30
0.0
  3
*D48
  1

  0
LINE
  5
3E3
  8
0
  6
CONTINUOUS
 62
     0
 10
0.0255032372979711
 20
5.2569707096751888
 30
0.0
 11
0.1384893589488945
 21
5.2569707096751888
 31
0.0
  0
LINE
  5
3E4
  8
0
  6
CONTINUOUS
 62
     0
 10
0.1384893589488945
 20
5.2569707096751888
 30
0.0
 11
0.5635813152768643
 21
4.8425988979201673
 31
0.0
  0
INSERT
  5
3E5
  8
0
  2
*U49
 10
0.0
 20
0.0
 30
0.0
  0
SOLID
  5
3E6
  8
0
  6
CONTINUOUS
 62
     0
 10
0.5726555746510269
 20
4.8519079159570158
 30
0.0
 11
0.5545070559027017
 21
4.8332898798833153
 31
0.0
 12
0.6194354234979717
 22
4.7881533416751889
 32
0.0
 13
0.6194354234979717
 23
4.7881533416751889
 33
0.0
  0
POINT
  5
3E7
  8
DEFPOINTS
  6
CONTINUOUS
 62
     0
 10
0.6194354234979717
 20
4.7881533416751889
 30
0.0
  0
POINT
  5
3E8
  8
DEFPOINTS
  6
CONTINUOUS
 62
     0
 10
0.8712562960979706
 20
4.5426829918751901
 30
0.0
  0
ENDBLK
  5
375
  8
0
  0
BLOCK
  8
0
  2
*U49
 70
     1
 10
0.0
 20
0.0
 30
0.0
  3
*U49
  1

  0
TEXT
  5
4CC
  8
0
 62
     0
 10
-0.3369967627020295
 20
5.2069707096751889
 30
0.0
 40
0.1
  1
R1.055
 41
0.75
  7
SLDTEXTSTYLE2
  0
ENDBLK
  5
4CE
  8
0
  0
BLOCK
  8
0
  2
*D50
 70
     1
 10
0.0
 20
0.0
 30
0.0
  3
*D50
  1

  0
LINE
  5
3F8
  8
0
 62
     0
 10
2.9444271123713071
 20
5.12902356732189
 30
0.0
 11
2.764427112371306
 21
5.12902356732189
 31
0.0
  0
LINE
  5
3F9
  8
0
 62
     0
 10
2.764427112371306
 20
5.12902356732189
 30
0.0
 11
2.655428524230373
 21
4.9857779468538173
 31
0.0
  0
INSERT
  5
3FA
  8
0
  2
*U51
 10
0.0
 20
0.0
 30
0.0
  0
SOLID
  5
3FB
  8
0
 62
     0
 10
2.6315542541523622
 20
5.0039443782106403
 30
0.0
 11
2.679302794308386
 21
4.9676115154969951
 31
0.0
 12
2.54642993608944
 22
4.8425323263857427
 32
0.0
 13
2.54642993608944
 23
4.8425323263857427
 33
0.0
  0
LINE
  5
3FC
  8
0
 62
     0
 10
2.42292296269797
 20
4.7984975615751884
 30
0.0
 11
2.6029229626979702
 21
4.7984975615751901
 31
0.0
  0
LINE
  5
3FD
  8
0
 62
     0
 10
2.5129229626979712
 20
4.7084975615751903
 30
0.0
 11
2.512922962697969
 21
4.8884975615751891
 31
0.0
  0
POINT
  5
3FE
  8
DEFPOINTS
 62
     0
 10
2.54642993608944
 20
4.8425323263857427
 30
0.0
  0
POINT
  5
3FF
  8
DEFPOINTS
 62
     0
 10
2.4794159893065002
 20
4.754462796764634
 30
0.0
  0
ENDBLK
  5
3EE
  8
0
  0
BLOCK
  8
0
  2
*U51
 70
     1
 10
0.0
 20
0.0
 30
0.0
  3
*U51
  1

  0
TEXT
  5
4D0
  8
0
 62
     0
 10
3.024236116464075
 20
5.0426456682768723
 30
0.0
 40
0.18
  1
Ø0.1107
  0
ENDBLK
  5
4D2
  8
0
  0
BLOCK
  8
0
  2
*D52
 70
     1
 10
0.0
 20
0.0
 30
0.0
  3
*D52
  1

  0
LINE
  5
416
  8
0
 62
     0
 10
1.490095022345111
 20
6.2527401837501539
 30
0.0
 11
1.310095022345112
 21
6.2527401837501531
 31
0.0
  0
LINE
  5
417
  8
0
 62
     0
 10
1.310095022345112
 20
6.2527401837501531
 30
0.0
 11
1.049956897076028
 21
6.1104736391930841
 31
0.0
  0
INSERT
  5
418
  8
0
  2
*U53
 10
0.0
 20
0.0
 30
0.0
  0
SOLID
  5
419
  8
0
 62
     0
 10
1.035562253645504
 20
6.136794623986745
 30
0.0
 11
1.06435154050655
 21
6.0841526543994231
 31
0.0
 12
0.8920309883140662
 22
6.024105778609945
 32
0.0
 13
0.8920309883140662
 23
6.024105778609945
 33
0.0
  0
LINE
  5
41A
  8
0
 62
     0
 10
0.7171458107690074
 20
5.9776830526794162
 30
0.0
 11
0.8971458107690072
 21
5.9776830526794162
 31
0.0
  0
LINE
  5
41B
  8
0
 62
     0
 10
0.8071458107690077
 20
5.8876830526794128
 30
0.0
 11
0.8071458107690077
 21
6.0676830526794143
 31
0.0
  0
POINT
  5
41C
  8
DEFPOINTS
 62
     0
 10
0.8920309883140662
 20
6.024105778609945
 30
0.0
  0
POINT
  5
41D
  8
DEFPOINTS
 62
     0
 10
0.7222606332239483
 20
5.9312603267488822
 30
0.0
  0
ENDBLK
  5
40C
  8
0
  0
BLOCK
  8
0
  2
*U53
 70
     1
 10
0.0
 20
0.0
 30
0.0
  3
*U53
  1

  0
TEXT
  5
4D7
  8
0
 62
     0
 10
1.5699040264378801
 20
6.1663622847051318
 30
0.0
 40
0.18
  1
Ø0.1935
  0
ENDBLK
  5
4D9
  8
0
  0
BLOCK
  8
0
  2
*D54
 70
     1
 10
0.0
 20
0.0
 30
0.0
  3
*D54
  1

  0
LINE
  5
5CE
  8
0
 62
     0
 10
0.5195896868979704
 20
12.49859704518855
 30
0.0
 11
0.5195896868979705
 21
14.727013717136179
 31
0.0
  0
LINE
  5
5CF
  8
0
 62
     0
 10
18.97958985929797
 20
12.49859717268855
 30
0.0
 11
18.97958985929797
 21
14.727013717136179
 31
0.0
  0
LINE
  5
5D0
  8
0
 62
     0
 10
0.6995896868979706
 20
14.54701371713618
 30
0.0
 11
9.1795897730979714
 21
14.54701371713618
 31
0.0
  0
LINE
  5
5D1
  8
0
 62
     0
 10
18.799589859297971
 20
14.54701371713618
 30
0.0
 11
10.31958977309797
 21
14.54701371713618
 31
0.0
  0
SOLID
  5
5D2
  8
0
 62
     0
 10
0.6995896868979706
 20
14.577013717136181
 30
0.0
 11
0.6995896868979706
 21
14.51701371713618
 31
0.0
 12
0.5195896868979705
 22
14.54701371713618
 32
0.0
 13
0.5195896868979705
 23
14.54701371713618
 33
0.0
  0
SOLID
  5
5D3
  8
0
 62
     0
 10
18.799589859297971
 20
14.577013717136181
 30
0.0
 11
18.799589859297971
 21
14.51701371713618
 31
0.0
 12
18.97958985929797
 22
14.54701371713618
 32
0.0
 13
18.97958985929797
 23
14.54701371713618
 33
0.0
  0
INSERT
  5
5D4
  8
0
  2
*U57
 10
0.0
 20
0.0
 30
0.0
  0
POINT
  5
5D5
  8
DEFPOINTS
 62
     0
 10
0.5195896868979704
 20
12.43609704518855
 30
0.0
  0
POINT
  5
5D6
  8
DEFPOINTS
 62
     0
 10
18.97958985929797
 20
12.43609717268855
 30
0.0
  0
POINT
  5
5D7
  8
DEFPOINTS
 62
     0
 10
18.97958985929797
 20
14.54701371713618
 30
0.0
  0
ENDBLK
  5
5CD
  8
0
  0
BLOCK
  8
0
  2
*D55
 70
     1
 10
0.0
 20
0.0
 30
0.0
  3
*D55
  1

  0
LINE
  5
5DC
  8
0
 62
     0
 10
17.98708983959245
 20
13.49109719239407
 30
0.0
 11
20.544807311907562
 21
13.49109719239407
 31
0.0
  0
LINE
  5
5DD
  8
0
 62
     0
 10
17.98708983959245
 20
0.4910969495771682
 30
0.0
 11
20.544807311907551
 21
0.4910969495771675
 31
0.0
  0
LINE
  5
5DE
  8
0
 62
     0
 10
20.364807311907558
 20
13.311097192394071
 30
0.0
 11
20.364807311907558
 21
7.1710970709856214
 31
0.0
  0
LINE
  5
5DF
  8
0
 62
     0
 10
20.364807311907558
 20
0.6710969495771675
 30
0.0
 11
20.364807311907558
 21
6.811097070985622
 31
0.0
  0
SOLID
  5
5E0
  8
0
 62
     0
 10
20.334807311907561
 20
13.311097192394071
 30
0.0
 11
20.394807311907559
 21
13.311097192394071
 31
0.0
 12
20.364807311907558
 22
13.49109719239407
 32
0.0
 13
20.364807311907558
 23
13.49109719239407
 33
0.0
  0
SOLID
  5
5E1
  8
0
 62
     0
 10
20.33480731190755
 20
0.6710969495771675
 30
0.0
 11
20.394807311907559
 21
0.6710969495771675
 31
0.0
 12
20.364807311907558
 22
0.4910969495771676
 32
0.0
 13
20.364807311907558
 23
0.4910969495771676
 33
0.0
  0
INSERT
  5
5E2
  8
0
  2
*U58
 10
0.0
 20
0.0
 30
0.0
  0
POINT
  5
5E3
  8
DEFPOINTS
 62
     0
 10
17.92458983959245
 20
13.49109719239407
 30
0.0
  0
POINT
  5
5E4
  8
DEFPOINTS
 62
     0
 10
17.92458983959245
 20
0.4910969495771682
 30
0.0
  0
POINT
  5
5E5
  8
DEFPOINTS
 62
     0
 10
20.364807311907558
 20
0.4910969495771676
 30
0.0
  0
ENDBLK
  5
5DB
  8
0
  0
BLOCK
  8
0
  2
*U57
 70
     1
 10
0.0
 20
0.0
 30
0.0
  3
*U57
  1

  0
TEXT
  5
64C
  8
0
 62
     0
 10
9.2695897730979713
 20
14.45701371713618
 30
0.0
 40
0.18
  1
18.4600
  0
ENDBLK
  5
64E
  8
0
  0
BLOCK
  8
0
  2
*U58
 70
     1
 10
0.0
 20
0.0
 30
0.0
  3
*U58
  1

  0
TEXT
  5
650
  8
0
 62
     0
 10
19.914807311907548
 20
6.9010970709856254
 30
0.0
 40
0.18
  1
13.0000
  0
ENDBLK
  5
652
  8
0
  0
ENDSEC
  0
SECTION
  2
ENTITIES
  0
CIRCLE
  5
2C9
  8
0
 10
0.8071458107690077
 20
10.24109713188985
 30
0.0
 40
0.0967500018071191
  0
CIRCLE
  5
2CB
  8
0
 10
12.999589747502201
 20
13.20354089612303
 30
0.0
 40
0.0967500018071164
  0
CIRCLE
  5
2CD
  8
0
 10
6.499589625993746
 20
13.20354089612303
 30
0.0
 40
0.0967500018071164
  0
CIRCLE
  5
2DB
  8
0
 10
6.499589625993746
 20
0.7786532461482114
 30
0.0
 40
0.0967500018071191
  0
CIRCLE
  5
2DC
  8
0
 10
18.692033563026929
 20
3.7410970103813961
 30
0.0
 40
0.0967500018071191
  0
CIRCLE
  5
2DD
  8
0
 10
18.692033563026929
 20
10.24109713188985
 30
0.0
 40
0.0967500018071191
  0
CIRCLE
  5
2DE
  8
0
 10
12.999589747502201
 20
0.7786532461482114
 30
0.0
 40
0.0967500018071191
  0
CIRCLE
  5
2DF
  8
0
 10
0.8071458107690077
 20
3.7410970103813961
 30
0.0
 40
0.0967500018071191
  0
POLYLINE
  5
5F7
  8
0
 66
     1
 10
0.0
 20
0.0
 30
0.0
 70
     1
  0
VERTEX
  5
656
  8
0
 10
18.96833968689797
 20
12.42609707113562
 30
0.0
 42
0.4142135623730957
  0
VERTEX
  5
657
  8
0
 10
17.934589686897969
 20
13.45984707113562
 30
0.0
  0
VERTEX
  5
658
  8
0
 10
1.564589686897971
 20
13.45984707113562
 30
0.0
 42
0.4142135623730957
  0
VERTEX
  5
659
  8
0
 10
0.5308396868979699
 20
12.42609707113562
 30
0.0
  0
VERTEX
  5
65A
  8
0
 10
0.5308396868979699
 20
1.5560970711356219
 30
0.0
 42
0.4142135623730959
  0
VERTEX
  5
65B
  8
0
 10
1.564589686897971
 20
0.5223470711356255
 30
0.0
  0
VERTEX
  5
65C
  8
0
 10
17.934589686897969
 20
0.5223470711356227
 30
0.0
 42
0.4142135623730951
  0
VERTEX
  5
65D
  8
0
 10
18.96833968689797
 20
1.5560970711356219
 30
0.0
  0
SEQEND
  5
65E
  8
0
  0
ENDSEC
  0
EOF
