  0
SECTION
  2
HEADER
  9
$ACADVER
  1
AC1009
  9
$INSBASE
 10
0.0
 20
0.0
 30
0.0
  9
$EXTMIN
 10
0.4938204261272672
 20
0.4632314676428448
 30
0.0
  9
$EXTMAX
 10
43.103161832610112
 20
14.044678569789109
 30
0.0
  9
$LIMMIN
 10
0.0
 20
0.0
  9
$LIMMAX
 10
12.0
 20
9.0
  9
$ORTHOMODE
 70
     1
  9
$REGENMODE
 70
     1
  9
$FILLMODE
 70
     1
  9
$QTEXTMODE
 70
     0
  9
$MIRRTEXT
 70
     0
  9
$DRAGMODE
 70
     2
  9
$LTSCALE
 40
1.0
  9
$OSMODE
 70
  2087
  9
$ATTMODE
 70
     1
  9
$TEXTSIZE
 40
0.2
  9
$TRACEWID
 40
0.05
  9
$TEXTSTYLE
  7
STANDARD
  9
$CLAYER
  8
0
  9
$CELTYPE
  6
BYLAYER
  9
$CECOLOR
 62
   256
  9
$DIMSCALE
 40
1.0
  9
$DIMASZ
 40
0.18
  9
$DIMEXO
 40
0.0625
  9
$DIMDLI
 40
0.38
  9
$DIMRND
 40
0.0
  9
$DIMDLE
 40
0.0
  9
$DIMEXE
 40
0.18
  9
$DIMTP
 40
0.0
  9
$DIMTM
 40
0.0
  9
$DIMTXT
 40
0.18
  9
$DIMCEN
 40
0.09
  9
$DIMTSZ
 40
0.0
  9
$DIMTOL
 70
     0
  9
$DIMLIM
 70
     0
  9
$DIMTIH
 70
     1
  9
$DIMTOH
 70
     1
  9
$DIMSE1
 70
     0
  9
$DIMSE2
 70
     0
  9
$DIMTAD
 70
     0
  9
$DIMZIN
 70
     0
  9
$DIMBLK
  1

  9
$DIMASO
 70
     1
  9
$DIMSHO
 70
     1
  9
$DIMPOST
  1

  9
$DIMAPOST
  1

  9
$DIMALT
 70
     0
  9
$DIMALTD
 70
     2
  9
$DIMALTF
 40
25.399999999999999
  9
$DIMLFAC
 40
1.0
  9
$DIMTOFL
 70
     0
  9
$DIMTVP
 40
0.0
  9
$DIMTIX
 70
     0
  9
$DIMSOXD
 70
     0
  9
$DIMSAH
 70
     0
  9
$DIMBLK1
  1

  9
$DIMBLK2
  1

  9
$DIMSTYLE
  2
STANDARD
  9
$DIMCLRD
 70
     0
  9
$DIMCLRE
 70
     0
  9
$DIMCLRT
 70
     0
  9
$DIMTFAC
 40
1.0
  9
$DIMGAP
 40
0.09
  9
$LUNITS
 70
     2
  9
$LUPREC
 70
     4
  9
$SKETCHINC
 40
0.1
  9
$FILLETRAD
 40
0.88
  9
$AUNITS
 70
     0
  9
$AUPREC
 70
     0
  9
$MENU
  1
.
  9
$ELEVATION
 40
0.0
  9
$PELEVATION
 40
0.0
  9
$THICKNESS
 40
0.0
  9
$LIMCHECK
 70
     0
  9
$BLIPMODE
 70
     0
  9
$CHAMFERA
 40
0.0
  9
$CHAMFERB
 40
0.0
  9
$SKPOLY
 70
     0
  9
$TDCREATE
 40
2459060.48169831
  9
$TDUPDATE
 40
2459062.5241336231
  9
$TDINDWG
 40
0.0035706366
  9
$TDUSRTIMER
 40
0.0035706134
  9
$USRTIMER
 70
     1
  9
$ANGBASE
 50
0.0
  9
$ANGDIR
 70
     0
  9
$PDMODE
 70
     0
  9
$PDSIZE
 40
0.0
  9
$PLINEWID
 40
0.0
  9
$COORDS
 70
     1
  9
$SPLFRAME
 70
     0
  9
$SPLINETYPE
 70
     6
  9
$SPLINESEGS
 70
     8
  9
$ATTDIA
 70
     1
  9
$ATTREQ
 70
     1
  9
$HANDLING
 70
     1
  9
$HANDSEED
  5
633
  9
$SURFTAB1
 70
     6
  9
$SURFTAB2
 70
     6
  9
$SURFTYPE
 70
     6
  9
$SURFU
 70
     6
  9
$SURFV
 70
     6
  9
$UCSNAME
  2

  9
$UCSORG
 10
0.0
 20
0.0
 30
0.0
  9
$UCSXDIR
 10
1.0
 20
0.0
 30
0.0
  9
$UCSYDIR
 10
0.0
 20
1.0
 30
0.0
  9
$PUCSNAME
  2

  9
$PUCSORG
 10
0.0
 20
0.0
 30
0.0
  9
$PUCSXDIR
 10
1.0
 20
0.0
 30
0.0
  9
$PUCSYDIR
 10
0.0
 20
1.0
 30
0.0
  9
$USERI1
 70
     0
  9
$USERI2
 70
     0
  9
$USERI3
 70
     0
  9
$USERI4
 70
     0
  9
$USERI5
 70
     0
  9
$USERR1
 40
0.0
  9
$USERR2
 40
0.0
  9
$USERR3
 40
0.0
  9
$USERR4
 40
0.0
  9
$USERR5
 40
0.0
  9
$WORLDVIEW
 70
     1
  9
$SHADEDGE
 70
     3
  9
$SHADEDIF
 70
    70
  9
$TILEMODE
 70
     1
  9
$MAXACTVP
 70
    64
  9
$PLIMCHECK
 70
     0
  9
$PEXTMIN
 10
0.0
 20
0.0
 30
0.0
  9
$PEXTMAX
 10
0.0
 20
0.0
 30
0.0
  9
$PLIMMIN
 10
0.0
 20
0.0
  9
$PLIMMAX
 10
12.0
 20
9.0
  9
$UNITMODE
 70
     0
  9
$VISRETAIN
 70
     1
  9
$PLINEGEN
 70
     0
  9
$PSLTSCALE
 70
     1
  0
ENDSEC
  0
SECTION
  2
TABLES
  0
TABLE
  2
VPORT
 70
     1
  0
VPORT
  2
*ACTIVE
 70
     0
 10
0.0
 20
0.0
 11
1.0
 21
1.0
 12
7.8021357916978111
 22
6.8341514379524781
 13
0.0
 23
0.0
 14
0.5
 24
0.5
 15
0.5
 25
0.5
 16
0.0
 26
0.0
 36
1.0
 17
0.0
 27
0.0
 37
0.0
 40
21.323449204970888
 41
2.2927120669056151
 42
50.0
 43
0.0
 44
0.0
 50
0.0
 51
0.0
 71
     0
 72
  1000
 73
     1
 74
     3
 75
     0
 76
     1
 77
     0
 78
     0
  0
ENDTAB
  0
TABLE
  2
LTYPE
 70
     3
  0
LTYPE
  2
CONTINUOUS
 70
     0
  3
Solid line
 72
    65
 73
     0
 40
0.0
  0
LTYPE
  2
CENTERX2
 70
     0
  3
Center (2x) ________  __  ________  __  _____
 72
    65
 73
     4
 40
0.8
 49
0.5
 49
-0.1
 49
0.1
 49
-0.1
  0
ENDTAB
  0
TABLE
  2
LAYER
 70
     2
  0
LAYER
  2
0
 70
     0
 62
     7
  6
CONTINUOUS
  0
LAYER
  2
DEFPOINTS
 70
     0
 62
     7
  6
CONTINUOUS
  0
ENDTAB
  0
TABLE
  2
STYLE
 70
     3
  0
STYLE
  2
STANDARD
 70
     0
 40
0.0
 41
1.0
 50
0.0
 71
     0
 42
0.2
  3
txt
  4

  0
STYLE
  2
ANNOTATIVE
 70
     0
 40
0.0
 41
1.0
 50
0.0
 71
     0
 42
0.2
  3
txt
  4

  0
STYLE
  2
SLDTEXTSTYLE2
 70
     0
 40
0.0
 41
0.75
 50
0.0
 71
     0
 42
0.1
  3
TXT
  4

  0
ENDTAB
  0
TABLE
  2
VIEW
 70
     0
  0
ENDTAB
  0
TABLE
  2
UCS
 70
     0
  0
ENDTAB
  0
TABLE
  2
APPID
 70
     9
  0
APPID
  2
ACAD
 70
     0
  0
APPID
  2
ACADANNOTATIVE
 70
     0
  0
APPID
  2
ACADANNOPO
 70
     0
  0
APPID
  2
ACAD_DSTYLE_DIMJAG
 70
     0
  0
APPID
  2
ACAD_DSTYLE_DIMTALN
 70
     0
  0
APPID
  2
ACAD_MLEADERVER
 70
     0
  0
APPID
  2
ACAD_NAV_VCDISPLAY
 70
     0
  0
APPID
  2
ACAD_EXEMPT_FROM_CAD_STANDARDS
 70
     0
  0
APPID
  2
ACAD_DSTYLE_DIMRADIAL_EXTENSION
 70
     0
  0
ENDTAB
  0
TABLE
  2
DIMSTYLE
 70
     7
  0
DIMSTYLE
  2
STANDARD
 70
     0
  3

  4

  5

  6

  7

 40
1.0
 41
0.18
 42
0.0625
 43
0.38
 44
0.18
 45
0.0
 46
0.0
 47
0.0
 48
0.0
140
0.18
141
0.09
142
0.0
143
25.399999999999999
144
1.0
145
0.0
146
1.0
147
0.09
 71
     0
 72
     0
 73
     1
 74
     1
 75
     0
 76
     0
 77
     0
 78
     0
170
     0
171
     2
172
     0
173
     0
174
     0
175
     0
176
     0
177
     0
178
     0
  0
DIMSTYLE
  2
ANNOTATIVE
 70
     0
  3

  4

  5

  6

  7

 40
0.0
 41
0.18
 42
0.0625
 43
0.38
 44
0.18
 45
0.0
 46
0.0
 47
0.0
 48
0.0
140
0.18
141
0.09
142
0.0
143
25.399999999999999
144
1.0
145
0.0
146
1.0
147
0.09
 71
     0
 72
     0
 73
     1
 74
     1
 75
     0
 76
     0
 77
     0
 78
     0
170
     0
171
     2
172
     0
173
     0
174
     0
175
     0
176
     0
177
     0
178
     0
  0
DIMSTYLE
  2
SLDDIMSTYLE0
 70
     0
  3

  4

  5

  6

  7

 40
1.0
 41
0.078
 42
0.0625
 43
0.38
 44
0.0
 45
0.000000001
 46
0.0
 47
0.0
 48
0.0
140
0.1
141
0.09
142
0.0
143
25.399999999999999
144
3.0
145
0.0
146
1.0
147
0.025
 71
     0
 72
     0
 73
     1
 74
     1
 75
     0
 76
     0
 77
     0
 78
    12
170
     0
171
     2
172
     1
173
     1
174
     0
175
     0
176
     0
177
     0
178
     0
  0
DIMSTYLE
  2
SLDDIMSTYLE1
 70
     0
  3

  4

  5

  6

  7

 40
1.0
 41
0.078
 42
0.0625
 43
0.38
 44
0.0
 45
0.000000001
 46
0.0
 47
0.0
 48
0.0
140
0.1
141
0.09
142
0.0
143
25.399999999999999
144
3.0
145
0.0
146
1.0
147
0.025
 71
     0
 72
     0
 73
     1
 74
     1
 75
     0
 76
     0
 77
     0
 78
    12
170
     0
171
     2
172
     0
173
     1
174
     0
175
     0
176
     0
177
     0
178
     0
  0
DIMSTYLE
  2
SLDDIMSTYLE2
 70
     0
  3

  4

  5

  6

  7

 40
1.0
 41
0.078
 42
0.0625
 43
0.38
 44
0.0
 45
0.000000001
 46
0.0
 47
0.0
 48
0.0
140
0.1
141
0.09
142
0.0
143
25.399999999999999
144
3.0
145
0.0
146
1.0
147
0.025
 71
     0
 72
     0
 73
     1
 74
     1
 75
     0
 76
     0
 77
     0
 78
     4
170
     0
171
     2
172
     0
173
     1
174
     0
175
     0
176
     0
177
     0
178
     0
  0
DIMSTYLE
  2
SLDDIMSTYLE3
 70
     0
  3

  4

  5

  6

  7

 40
1.0
 41
0.078
 42
0.0625
 43
0.38
 44
0.0
 45
0.000000001
 46
0.0
 47
0.0
 48
0.0
140
0.1
141
0.0
142
0.0
143
25.399999999999999
144
3.0
145
0.0
146
1.0
147
0.025
 71
     0
 72
     0
 73
     1
 74
     1
 75
     0
 76
     0
 77
     0
 78
     4
170
     0
171
     2
172
     0
173
     1
174
     0
175
     0
176
     0
177
     0
178
     0
  0
ENDTAB
  0
ENDSEC
  0
SECTION
  2
BLOCKS
  0
BLOCK
  8
0
  2
$MODEL_SPACE
 70
     0
 10
0.0
 20
0.0
 30
0.0
  3
$MODEL_SPACE
  1

  0
ENDBLK
  5
534
  8
0
  0
BLOCK
 67
     1
  8
0
  2
$PAPER_SPACE
 70
     0
 10
0.0
 20
0.0
 30
0.0
  3
$PAPER_SPACE
  1

  0
ENDBLK
  5
530
 67
     1
  8
0
  0
BLOCK
  8
0
  2
SW_RADIAL_DIMENSION_0
 70
     0
 10
0.0
 20
0.0
 30
0.0
  3
SW_RADIAL_DIMENSION_0
  1

  0
SOLID
  5
1EB
  8
0
  6
CONTINUOUS
 62
     0
 10
1.630375509899999
 20
0.4069258408
 30
0.0
 11
1.553665184799998
 21
0.3877288092
 31
0.0
 12
1.5640377531
 22
0.3638874622
 32
0.0
 13
1.5640377531
 23
0.3638874622
 33
0.0
  0
LINE
  5
1EC
  8
0
  6
CONTINUOUS
 62
     0
 10
1.630375509899999
 20
0.4069258408
 30
0.0
 11
0.8774999693000001
 21
0.0793750097
 31
0.0
  0
LINE
  5
1ED
  8
0
  6
CONTINUOUS
 62
     0
 10
0.8774999693000001
 20
0.0793750097
 30
0.0
 11
0.7008333326000003
 21
0.0793750097
 31
0.0
  0
INSERT
  5
1EE
  8
0
  2
*U3
 10
0.0
 20
0.0
 30
0.0
  0
INSERT
  5
1EF
  8
0
  2
*U4
 10
0.0
 20
0.0
 30
0.0
  0
ENDBLK
  5
1F0
  8
0
  0
BLOCK
  8
0
  2
*U3
 70
     1
 10
0.0
 20
0.0
 30
0.0
  3
*U3
  1

  0
TEXT
  5
45E
  8
0
 62
     0
 10
0.0
 20
0.028906774
 30
0.0
 40
0.1
  1
HOLE FOR
 41
0.75
  7
SLDTEXTSTYLE2
  0
ENDBLK
  5
460
  8
0
  0
BLOCK
  8
0
  2
*U4
 70
     1
 10
0.0
 20
0.0
 30
0.0
  3
*U4
  1

  0
TEXT
  5
462
  8
0
 62
     0
 10
-0.1079166367
 20
-0.1298432271
 30
0.0
 40
0.1
  1
#8-32 SCREW
 41
0.75
  7
SLDTEXTSTYLE2
  0
ENDBLK
  5
464
  8
0
  0
BLOCK
  8
0
  2
_D
 70
     0
 10
0.0
 20
0.0
 30
0.0
  3
_D
  1

  0
SOLID
  5
1F3
  8
0
  6
CONTINUOUS
 62
     7
 10
2.730151007199999
 20
3.0152493062999981
 30
0.0
 11
2.6521510072000001
 21
3.028249306299998
 31
0.0
 12
2.6521510072000001
 22
3.0022493062999991
 32
0.0
 13
2.6521510072000001
 23
3.0022493062999991
 33
0.0
  0
SOLID
  5
1F4
  8
0
  6
CONTINUOUS
 62
     7
 10
2.8260031041999989
 20
3.0152493062999981
 30
0.0
 11
2.9040031042000001
 21
3.0022493062999991
 31
0.0
 12
2.9040031042000001
 22
3.028249306299998
 32
0.0
 13
2.9040031042000001
 23
3.028249306299998
 33
0.0
  0
LINE
  5
1F5
  8
0
  6
CONTINUOUS
 62
     7
 10
2.730151007199999
 20
3.4699957591000001
 30
0.0
 11
2.730151007199999
 21
2.9652493063000001
 31
0.0
  0
LINE
  5
1F6
  8
0
  6
CONTINUOUS
 62
     7
 10
2.8260031041999989
 20
4.2161624257999986
 30
0.0
 11
2.8260031041999989
 21
2.9652493063000001
 31
0.0
  0
LINE
  5
1F7
  8
0
  6
CONTINUOUS
 62
     7
 10
2.730151007199999
 20
3.0152493062999981
 30
0.0
 11
2.465755779399998
 21
3.0152493062999981
 31
0.0
  0
LINE
  5
1F8
  8
0
  6
CONTINUOUS
 62
     7
 10
2.8260031041999989
 20
3.0152493062999981
 30
0.0
 11
2.9510031041999989
 21
3.0152493062999981
 31
0.0
  0
INSERT
  5
1F9
  8
0
  2
*U6
 10
0.0
 20
0.0
 30
0.0
  0
ENDBLK
  5
1FA
  8
0
  0
BLOCK
  8
0
  2
*U6
 70
     1
 10
0.0
 20
0.0
 30
0.0
  3
*U6
  1

  0
TEXT
  5
466
  8
0
 62
     7
 10
2.2071446601999991
 20
2.9647810796999989
 30
0.0
 40
0.1
  1
.288
 41
0.75
  7
SLDTEXTSTYLE2
  0
ENDBLK
  5
468
  8
0
  0
BLOCK
  8
0
  2
_D_1
 70
     0
 10
0.0
 20
0.0
 30
0.0
  3
_D_1
  1

  0
SOLID
  5
1FD
  8
0
  6
CONTINUOUS
 62
     7
 10
2.8260031041999989
 20
3.0152493062999981
 30
0.0
 11
2.9040031042000001
 21
3.0022493062999991
 31
0.0
 12
2.9040031042000001
 22
3.028249306299998
 32
0.0
 13
2.9040031042000001
 23
3.028249306299998
 33
0.0
  0
SOLID
  5
1FE
  8
0
  6
CONTINUOUS
 62
     7
 10
4.4084843406000003
 20
3.0152493062999981
 30
0.0
 11
4.3304843405999991
 21
3.028249306299998
 31
0.0
 12
4.3304843405999991
 22
3.0022493062999991
 32
0.0
 13
4.3304843405999991
 23
3.0022493062999991
 33
0.0
  0
LINE
  5
1FF
  8
0
  6
CONTINUOUS
 62
     7
 10
2.8260031041999989
 20
4.2161624257999986
 30
0.0
 11
2.8260031041999989
 21
2.9652493063000001
 31
0.0
  0
LINE
  5
200
  8
0
  6
CONTINUOUS
 62
     7
 10
4.4084843406000003
 20
3.2758478560999991
 30
0.0
 11
4.4084843406000003
 21
2.9652493063000001
 31
0.0
  0
LINE
  5
201
  8
0
  6
CONTINUOUS
 62
     7
 10
2.8260031041999989
 20
3.0152493062999981
 30
0.0
 11
3.4509937145999992
 21
3.0152493062999981
 31
0.0
  0
LINE
  5
202
  8
0
  6
CONTINUOUS
 62
     7
 10
4.4084843406000003
 20
3.0152493062999981
 30
0.0
 11
3.7834937302
 21
3.0152493062999981
 31
0.0
  0
INSERT
  5
203
  8
0
  2
*U8
 10
0.0
 20
0.0
 30
0.0
  0
ENDBLK
  5
204
  8
0
  0
BLOCK
  8
0
  2
*U8
 70
     1
 10
0.0
 20
0.0
 30
0.0
  3
*U8
  1

  0
TEXT
  5
46A
  8
0
 62
     7
 10
3.4509937145999992
 20
2.9647810796999989
 30
0.0
 40
0.1
  1
4.747
 41
0.75
  7
SLDTEXTSTYLE2
  0
ENDBLK
  5
46C
  8
0
  0
BLOCK
  8
0
  2
_D_2
 70
     0
 10
0.0
 20
0.0
 30
0.0
  3
_D_2
  1

  0
SOLID
  5
207
  8
0
  6
CONTINUOUS
 62
     7
 10
4.4084843406000003
 20
3.0152493062999981
 30
0.0
 11
4.4864843405999979
 21
3.0022493062999991
 31
0.0
 12
4.4864843405999979
 22
3.028249306299998
 32
0.0
 13
4.4864843405999979
 23
3.028249306299998
 33
0.0
  0
SOLID
  5
208
  8
0
  6
CONTINUOUS
 62
     7
 10
6.7418176738999991
 20
3.0152493062999981
 30
0.0
 11
6.6638176738999979
 21
3.028249306299998
 31
0.0
 12
6.6638176738999979
 22
3.0022493062999991
 32
0.0
 13
6.6638176738999979
 23
3.0022493062999991
 33
0.0
  0
LINE
  5
209
  8
0
  6
CONTINUOUS
 62
     7
 10
4.4084843406000003
 20
3.2758478560999991
 30
0.0
 11
4.4084843406000003
 21
2.9652493063000001
 31
0.0
  0
LINE
  5
20A
  8
0
  6
CONTINUOUS
 62
     7
 10
6.7418176738999991
 20
3.2758478560999991
 30
0.0
 11
6.7418176738999991
 21
2.9652493063000001
 31
0.0
  0
LINE
  5
20B
  8
0
  6
CONTINUOUS
 62
     7
 10
4.4084843406000003
 20
3.0152493062999981
 30
0.0
 11
5.4089009994000001
 21
3.0152493062999981
 31
0.0
  0
LINE
  5
20C
  8
0
  6
CONTINUOUS
 62
     7
 10
6.7418176738999991
 20
3.0152493062999981
 30
0.0
 11
5.7414010150000001
 21
3.0152493062999981
 31
0.0
  0
INSERT
  5
20D
  8
0
  2
*U10
 10
0.0
 20
0.0
 30
0.0
  0
ENDBLK
  5
20E
  8
0
  0
BLOCK
  8
0
  2
*U10
 70
     1
 10
0.0
 20
0.0
 30
0.0
  3
*U10
  1

  0
TEXT
  5
46E
  8
0
 62
     7
 10
5.4089009994000001
 20
2.9647810796999989
 30
0.0
 40
0.1
  1
7.000
 41
0.75
  7
SLDTEXTSTYLE2
  0
ENDBLK
  5
470
  8
0
  0
BLOCK
  8
0
  2
_D_3
 70
     0
 10
0.0
 20
0.0
 30
0.0
  3
_D_3
  1

  0
SOLID
  5
211
  8
0
  6
CONTINUOUS
 62
     7
 10
2.8260031041999989
 20
2.8212949717
 30
0.0
 11
2.9040031042000001
 21
2.8082949717000001
 31
0.0
 12
2.9040031042000001
 22
2.834294971699999
 32
0.0
 13
2.9040031042000001
 23
2.834294971699999
 33
0.0
  0
SOLID
  5
212
  8
0
  6
CONTINUOUS
 62
     7
 10
8.3242989102999978
 20
2.8212949717
 30
0.0
 11
8.2462989103000002
 21
2.834294971699999
 31
0.0
 12
8.2462989103000002
 22
2.8082949717000001
 32
0.0
 13
8.2462989103000002
 23
2.8082949717000001
 33
0.0
  0
LINE
  5
213
  8
0
  6
CONTINUOUS
 62
     7
 10
2.8260031041999989
 20
4.2161624257999986
 30
0.0
 11
2.8260031041999989
 21
2.7712949717000002
 31
0.0
  0
LINE
  5
214
  8
0
  6
CONTINUOUS
 62
     7
 10
8.3242989102999978
 20
4.2161624257999986
 30
0.0
 11
8.3242989102999978
 21
2.7712949717000002
 31
0.0
  0
LINE
  5
215
  8
0
  6
CONTINUOUS
 62
     7
 10
2.8260031041999989
 20
2.8212949717
 30
0.0
 11
5.3719565512000003
 21
2.8212949717
 31
0.0
  0
LINE
  5
216
  8
0
  6
CONTINUOUS
 62
     7
 10
8.3242989102999978
 20
2.8212949717
 30
0.0
 11
5.7783454632
 21
2.8212949717
 31
0.0
  0
INSERT
  5
217
  8
0
  2
*U12
 10
0.0
 20
0.0
 30
0.0
  0
ENDBLK
  5
218
  8
0
  0
BLOCK
  8
0
  2
*U12
 70
     1
 10
0.0
 20
0.0
 30
0.0
  3
*U12
  1

  0
TEXT
  5
472
  8
0
 62
     7
 10
5.3719565512000003
 20
2.770826745099999
 30
0.0
 40
0.1
  1
16.495
 41
0.75
  7
SLDTEXTSTYLE2
  0
ENDBLK
  5
474
  8
0
  0
BLOCK
  8
0
  2
_D_4
 70
     0
 10
0.0
 20
0.0
 30
0.0
  3
_D_4
  1

  0
SOLID
  5
21B
  8
0
  6
CONTINUOUS
 62
     7
 10
8.8138517945999961
 20
3.2149957590999989
 30
0.0
 11
8.8008517945999998
 21
3.1369957590999991
 31
0.0
 12
8.8268517945999978
 22
3.1369957590999991
 32
0.0
 13
8.8268517945999978
 23
3.1369957590999991
 33
0.0
  0
SOLID
  5
21C
  8
0
  6
CONTINUOUS
 62
     7
 10
8.8138517945999961
 20
3.3108478561000001
 30
0.0
 11
8.8268517945999978
 21
3.3888478560999991
 31
0.0
 12
8.8008517945999998
 22
3.3888478560999991
 32
0.0
 13
8.8008517945999998
 23
3.3888478560999991
 33
0.0
  0
LINE
  5
21D
  8
0
  6
CONTINUOUS
 62
     7
 10
8.1651510072000004
 20
3.2149957590999989
 30
0.0
 11
8.8638517946000004
 21
3.2149957590999989
 31
0.0
  0
LINE
  5
21E
  8
0
  6
CONTINUOUS
 62
     7
 10
6.7768176739000001
 20
3.3108478561000001
 30
0.0
 11
8.8638517946000004
 21
3.3108478561000001
 31
0.0
  0
LINE
  5
21F
  8
0
  6
CONTINUOUS
 62
     7
 10
8.9138517946000011
 20
3.0152493062999981
 30
0.0
 11
8.8138517945999961
 21
3.0152493062999981
 31
0.0
  0
LINE
  5
220
  8
0
  6
CONTINUOUS
 62
     7
 10
8.8138517945999961
 20
3.0152493062999981
 30
0.0
 11
8.8138517945999961
 21
3.2149957590999989
 31
0.0
  0
LINE
  5
221
  8
0
  6
CONTINUOUS
 62
     7
 10
8.8138517945999961
 20
3.3108478561000001
 30
0.0
 11
8.8138517945999961
 21
3.4358478561000001
 31
0.0
  0
INSERT
  5
222
  8
0
  2
*U14
 10
0.0
 20
0.0
 30
0.0
  0
ENDBLK
  5
223
  8
0
  0
BLOCK
  8
0
  2
*U14
 70
     1
 10
0.0
 20
0.0
 30
0.0
  3
*U14
  1

  0
TEXT
  5
476
  8
0
 62
     7
 10
8.9138517946000011
 20
2.9647810796999989
 30
0.0
 40
0.1
  1
.288
 41
0.75
  7
SLDTEXTSTYLE2
  0
ENDBLK
  5
478
  8
0
  0
BLOCK
  8
0
  2
_D_5
 70
     0
 10
0.0
 20
0.0
 30
0.0
  3
_D_5
  1

  0
SOLID
  5
226
  8
0
  6
CONTINUOUS
 62
     7
 10
8.8138517945999961
 20
3.3108478561000001
 30
0.0
 11
8.8268517945999978
 21
3.3888478560999991
 31
0.0
 12
8.8008517945999998
 22
3.3888478560999991
 32
0.0
 13
8.8008517945999998
 23
3.3888478560999991
 33
0.0
  0
SOLID
  5
227
  8
0
  6
CONTINUOUS
 62
     7
 10
8.8138517945999961
 20
4.2511624257999987
 30
0.0
 11
8.8008517945999998
 21
4.1731624258000002
 31
0.0
 12
8.8268517945999978
 22
4.1731624258000002
 32
0.0
 13
8.8268517945999978
 23
4.1731624258000002
 33
0.0
  0
LINE
  5
228
  8
0
  6
CONTINUOUS
 62
     7
 10
6.7768176739000001
 20
3.3108478561000001
 30
0.0
 11
8.8638517946000004
 21
3.3108478561000001
 31
0.0
  0
LINE
  5
229
  8
0
  6
CONTINUOUS
 62
     7
 10
8.3592989102999962
 20
4.2511624257999987
 30
0.0
 11
8.8638517946000004
 21
4.2511624257999987
 31
0.0
  0
LINE
  5
22A
  8
0
  6
CONTINUOUS
 62
     7
 10
8.8138517945999961
 20
3.3108478561000001
 30
0.0
 11
8.8138517945999961
 21
3.7016301403999989
 31
0.0
  0
LINE
  5
22B
  8
0
  6
CONTINUOUS
 62
     7
 10
8.8138517945999961
 20
4.2511624257999987
 30
0.0
 11
8.8138517945999961
 21
3.8603801414999981
 31
0.0
  0
INSERT
  5
22C
  8
0
  2
*U16
 10
0.0
 20
0.0
 30
0.0
  0
ENDBLK
  5
22D
  8
0
  0
BLOCK
  8
0
  2
*U16
 70
     1
 10
0.0
 20
0.0
 30
0.0
  3
*U16
  1

  0
TEXT
  5
47A
  8
0
 62
     7
 10
8.6476017867999992
 20
3.7305369143
 30
0.0
 40
0.1
  1
2.821
 41
0.75
  7
SLDTEXTSTYLE2
  0
ENDBLK
  5
47C
  8
0
  0
BLOCK
  8
0
  2
_D_6
 70
     0
 10
0.0
 20
0.0
 30
0.0
  3
_D_6
  1

  0
SOLID
  5
230
  8
0
  6
CONTINUOUS
 62
     7
 10
8.8138517945999961
 20
4.2511624257999987
 30
0.0
 11
8.8268517945999978
 21
4.3291624257999981
 31
0.0
 12
8.8008517945999998
 22
4.3291624257999981
 32
0.0
 13
8.8008517945999998
 23
4.3291624257999981
 33
0.0
  0
SOLID
  5
231
  8
0
  6
CONTINUOUS
 62
     7
 10
8.8138517945999961
 20
5.9844957590999979
 30
0.0
 11
8.8008517945999998
 21
5.9064957591000002
 31
0.0
 12
8.8268517945999978
 22
5.9064957591000002
 32
0.0
 13
8.8268517945999978
 23
5.9064957591000002
 33
0.0
  0
LINE
  5
232
  8
0
  6
CONTINUOUS
 62
     7
 10
8.3592989102999962
 20
4.2511624257999987
 30
0.0
 11
8.8638517946000004
 21
4.2511624257999987
 31
0.0
  0
LINE
  5
233
  8
0
  6
CONTINUOUS
 62
     7
 10
8.3592989102999962
 20
5.9844957590999979
 30
0.0
 11
8.8638517946000004
 21
5.9844957590999979
 31
0.0
  0
LINE
  5
234
  8
0
  6
CONTINUOUS
 62
     7
 10
8.8138517945999961
 20
4.2511624257999987
 30
0.0
 11
8.8138517945999961
 21
5.0384540919000003
 31
0.0
  0
LINE
  5
235
  8
0
  6
CONTINUOUS
 62
     7
 10
8.8138517945999961
 20
5.9844957590999979
 30
0.0
 11
8.8138517945999961
 21
5.1972040929999981
 31
0.0
  0
INSERT
  5
236
  8
0
  2
*U18
 10
0.0
 20
0.0
 30
0.0
  0
ENDBLK
  5
237
  8
0
  0
BLOCK
  8
0
  2
*U18
 70
     1
 10
0.0
 20
0.0
 30
0.0
  3
*U18
  1

  0
TEXT
  5
47E
  8
0
 62
     7
 10
8.6476017867999992
 20
5.0673608658999987
 30
0.0
 40
0.1
  1
5.200
 41
0.75
  7
SLDTEXTSTYLE2
  0
ENDBLK
  5
480
  8
0
  0
BLOCK
  8
0
  2
_D_7
 70
     0
 10
0.0
 20
0.0
 30
0.0
  3
_D_7
  1

  0
SOLID
  5
23A
  8
0
  6
CONTINUOUS
 62
     7
 10
9.1338423113000005
 20
3.3108478561000001
 30
0.0
 11
9.1468423113000004
 21
3.3888478560999991
 31
0.0
 12
9.1208423113000006
 22
3.3888478560999991
 32
0.0
 13
9.1208423113000006
 23
3.3888478560999991
 33
0.0
  0
SOLID
  5
23B
  8
0
  6
CONTINUOUS
 62
     7
 10
9.1338423113000005
 20
6.9248103287999987
 30
0.0
 11
9.1208423113000006
 21
6.8468103288000002
 31
0.0
 12
9.1468423113000004
 22
6.8468103288000002
 32
0.0
 13
9.1468423113000004
 23
6.8468103288000002
 33
0.0
  0
LINE
  5
23C
  8
0
  6
CONTINUOUS
 62
     7
 10
6.7768176739000001
 20
3.3108478561000001
 30
0.0
 11
9.1838423112999994
 21
3.3108478561000001
 31
0.0
  0
LINE
  5
23D
  8
0
  6
CONTINUOUS
 62
     7
 10
6.7768176739000001
 20
6.9248103287999987
 30
0.0
 11
9.1838423112999994
 21
6.9248103287999987
 31
0.0
  0
LINE
  5
23E
  8
0
  6
CONTINUOUS
 62
     7
 10
9.1338423113000005
 20
3.3108478561000001
 30
0.0
 11
9.1338423113000005
 21
5.0384540919000003
 31
0.0
  0
LINE
  5
23F
  8
0
  6
CONTINUOUS
 62
     7
 10
9.1338423113000005
 20
6.9248103287999987
 30
0.0
 11
9.1338423113000005
 21
5.1972040929999981
 31
0.0
  0
INSERT
  5
240
  8
0
  2
*U20
 10
0.0
 20
0.0
 30
0.0
  0
ENDBLK
  5
241
  8
0
  0
BLOCK
  8
0
  2
*U20
 70
     1
 10
0.0
 20
0.0
 30
0.0
  3
*U20
  1

  0
TEXT
  5
482
  8
0
 62
     7
 10
8.9306478553000002
 20
5.0673608658999987
 30
0.0
 40
0.1
  1
10.842
 41
0.75
  7
SLDTEXTSTYLE2
  0
ENDBLK
  5
484
  8
0
  0
BLOCK
  8
0
  2
_D_8
 70
     0
 10
0.0
 20
0.0
 30
0.0
  3
_D_8
  1

  0
SOLID
  5
244
  8
0
  6
CONTINUOUS
 62
     7
 10
2.346450219799999
 20
3.2149957590999989
 30
0.0
 11
2.359450219799998
 21
3.2929957591000001
 31
0.0
 12
2.3334502198
 22
3.2929957591000001
 32
0.0
 13
2.3334502198
 23
3.2929957591000001
 33
0.0
  0
SOLID
  5
245
  8
0
  6
CONTINUOUS
 62
     7
 10
2.346450219799999
 20
7.0206624258000003
 30
0.0
 11
2.3334502198
 21
6.9426624258
 31
0.0
 12
2.359450219799998
 22
6.9426624258
 32
0.0
 13
2.359450219799998
 23
6.9426624258
 33
0.0
  0
LINE
  5
246
  8
0
  6
CONTINUOUS
 62
     7
 10
2.9851510071999989
 20
3.2149957590999989
 30
0.0
 11
2.2964502198000001
 21
3.2149957590999989
 31
0.0
  0
LINE
  5
247
  8
0
  6
CONTINUOUS
 62
     7
 10
2.9851510071999989
 20
7.0206624258000003
 30
0.0
 11
2.2964502198000001
 21
7.0206624258000003
 31
0.0
  0
LINE
  5
248
  8
0
  6
CONTINUOUS
 62
     7
 10
2.346450219799999
 20
3.2149957590999989
 30
0.0
 11
2.346450219799999
 21
5.0384540919000003
 31
0.0
  0
LINE
  5
249
  8
0
  6
CONTINUOUS
 62
     7
 10
2.346450219799999
 20
7.0206624258000003
 30
0.0
 11
2.346450219799999
 21
5.1972040929999981
 31
0.0
  0
INSERT
  5
24A
  8
0
  2
*U22
 10
0.0
 20
0.0
 30
0.0
  0
ENDBLK
  5
24B
  8
0
  0
BLOCK
  8
0
  2
*U22
 70
     1
 10
0.0
 20
0.0
 30
0.0
  3
*U22
  1

  0
TEXT
  5
486
  8
0
 62
     7
 10
2.1432557638
 20
5.0673608658999987
 30
0.0
 40
0.1
  1
11.417
 41
0.75
  7
SLDTEXTSTYLE2
  0
ENDBLK
  5
488
  8
0
  0
BLOCK
  8
0
  2
_D_9
 70
     0
 10
0.0
 20
0.0
 30
0.0
  3
_D_9
  1

  0
SOLID
  5
24E
  8
0
  6
CONTINUOUS
 62
     7
 10
2.730151007199999
 20
7.404363213199999
 30
0.0
 11
2.8081510072000002
 21
7.3913632132
 31
0.0
 12
2.8081510072000002
 22
7.4173632131999989
 32
0.0
 13
2.8081510072000002
 23
7.4173632131999989
 33
0.0
  0
SOLID
  5
24F
  8
0
  6
CONTINUOUS
 62
     7
 10
8.4201510071999977
 20
7.404363213199999
 30
0.0
 11
8.3421510072
 21
7.4173632131999989
 31
0.0
 12
8.3421510072
 22
7.3913632132
 32
0.0
 13
8.3421510072
 23
7.3913632132
 33
0.0
  0
LINE
  5
250
  8
0
  6
CONTINUOUS
 62
     7
 10
2.730151007199999
 20
6.7656624258000004
 30
0.0
 11
2.730151007199999
 21
7.454363213199998
 31
0.0
  0
LINE
  5
251
  8
0
  6
CONTINUOUS
 62
     7
 10
8.4201510071999977
 20
6.7656624258000004
 30
0.0
 11
8.4201510071999977
 21
7.454363213199998
 31
0.0
  0
LINE
  5
252
  8
0
  6
CONTINUOUS
 62
     7
 10
2.730151007199999
 20
7.404363213199999
 30
0.0
 11
5.3719565512000003
 21
7.404363213199999
 31
0.0
  0
LINE
  5
253
  8
0
  6
CONTINUOUS
 62
     7
 10
8.4201510071999977
 20
7.404363213199999
 30
0.0
 11
5.7783454632
 21
7.404363213199999
 31
0.0
  0
INSERT
  5
254
  8
0
  2
*U24
 10
0.0
 20
0.0
 30
0.0
  0
ENDBLK
  5
255
  8
0
  0
BLOCK
  8
0
  2
*U24
 70
     1
 10
0.0
 20
0.0
 30
0.0
  3
*U24
  1

  0
TEXT
  5
48A
  8
0
 62
     7
 10
5.3719565512000003
 20
7.3538949866000003
 30
0.0
 40
0.1
  1
17.070
 41
0.75
  7
SLDTEXTSTYLE2
  0
ENDBLK
  5
48C
  8
0
  0
BLOCK
  8
0
  2
_D_10
 70
     0
 10
0.0
 20
0.0
 30
0.0
  3
_D_10
  1

  0
SOLID
  5
258
  8
0
  6
CONTINUOUS
 62
     7
 10
2.8093779762
 20
6.9298475893999987
 30
0.0
 11
2.7616162889999991
 21
6.9928699760999979
 31
0.0
 12
2.7437583087999982
 22
6.973973083699998
 32
0.0
 13
2.7437583087999982
 23
6.973973083699998
 33
0.0
  0
LINE
  5
259
  8
0
  6
CONTINUOUS
 62
     7
 10
2.8093779762
 20
6.9298475893999987
 30
0.0
 11
2.3012639991000001
 21
7.4100265058000003
 31
0.0
  0
LINE
  5
25A
  8
0
  6
CONTINUOUS
 62
     7
 10
2.3012639991000001
 20
7.4100265058000003
 30
0.0
 11
2.2012639991
 21
7.4100265058000003
 31
0.0
  0
INSERT
  5
25B
  8
0
  2
*U26
 10
0.0
 20
0.0
 30
0.0
  0
ENDBLK
  5
25C
  8
0
  0
BLOCK
  8
0
  2
*U26
 70
     1
 10
0.0
 20
0.0
 30
0.0
  3
*U26
  1

  0
TEXT
  5
48E
  8
0
 62
     7
 10
1.861680652
 20
7.3595582791999989
 30
0.0
 40
0.1
  1
R.870
 41
0.75
  7
SLDTEXTSTYLE2
  0
ENDBLK
  5
490
  8
0
  0
BLOCK
  8
0
  2
SW_CENTERMARKSYMBOL_0
 70
     0
 10
0.0
 20
0.0
 30
0.0
  3
SW_CENTERMARKSYMBOL_0
  1

  0
LINE
  5
25F
  8
0
  6
CONTINUOUS
 62
     0
 10
0.0
 20
0.0
 30
0.0
 11
0.0
 21
0.0333333333
 31
0.0
  0
LINE
  5
260
  8
0
  6
CONTINUOUS
 62
     0
 10
0.0
 20
0.0
 30
0.0
 11
-0.0333333333
 21
0.0
 31
0.0
  0
LINE
  5
261
  8
0
  6
CONTINUOUS
 62
     0
 10
0.0
 20
0.0
 30
0.0
 11
0.0
 21
-0.0333333333
 31
0.0
  0
LINE
  5
262
  8
0
  6
CONTINUOUS
 62
     0
 10
0.0
 20
0.0
 30
0.0
 11
0.0333333333
 21
0.0
 31
0.0
  0
LINE
  5
263
  8
0
  6
CONTINUOUS
 62
     0
 10
-0.0666666667
 20
0.0
 30
0.0
 11
-0.0886666667
 21
0.0
 31
0.0
  0
LINE
  5
264
  8
0
  6
CONTINUOUS
 62
     0
 10
0.0
 20
-0.0666666667
 30
0.0
 11
0.0
 21
-0.0886666667
 31
0.0
  0
LINE
  5
265
  8
0
  6
CONTINUOUS
 62
     0
 10
5.498295806099998
 20
0.0
 30
0.0
 11
5.498295806099998
 21
0.0333333333
 31
0.0
  0
LINE
  5
266
  8
0
  6
CONTINUOUS
 62
     0
 10
5.498295806099998
 20
0.0
 30
0.0
 11
5.464962472699999
 21
0.0
 31
0.0
  0
LINE
  5
267
  8
0
  6
CONTINUOUS
 62
     0
 10
5.498295806099998
 20
0.0
 30
0.0
 11
5.498295806099998
 21
-0.0333333333
 31
0.0
  0
LINE
  5
268
  8
0
  6
CONTINUOUS
 62
     0
 10
5.498295806099998
 20
0.0
 30
0.0
 11
5.5316291393999988
 21
0.0
 31
0.0
  0
LINE
  5
269
  8
0
  6
CONTINUOUS
 62
     0
 10
5.498295806099998
 20
-0.0666666667
 30
0.0
 11
5.498295806099998
 21
-0.0886666667
 31
0.0
  0
LINE
  5
26A
  8
0
  6
CONTINUOUS
 62
     0
 10
5.5649624726999987
 20
0.0
 30
0.0
 11
5.586962472699998
 21
0.0
 31
0.0
  0
LINE
  5
26B
  8
0
  6
CONTINUOUS
 62
     0
 10
5.498295806099998
 20
1.7333333333000001
 30
0.0
 11
5.498295806099998
 21
1.7666666666999991
 31
0.0
  0
LINE
  5
26C
  8
0
  6
CONTINUOUS
 62
     0
 10
5.498295806099998
 20
1.7333333333000001
 30
0.0
 11
5.464962472699999
 21
1.7333333333000001
 31
0.0
  0
LINE
  5
26D
  8
0
  6
CONTINUOUS
 62
     0
 10
5.498295806099998
 20
1.7333333333000001
 30
0.0
 11
5.498295806099998
 21
1.7
 31
0.0
  0
LINE
  5
26E
  8
0
  6
CONTINUOUS
 62
     0
 10
5.498295806099998
 20
1.7333333333000001
 30
0.0
 11
5.5316291393999988
 21
1.7333333333000001
 31
0.0
  0
LINE
  5
26F
  8
0
  6
CONTINUOUS
 62
     0
 10
5.498295806099998
 20
1.8
 30
0.0
 11
5.498295806099998
 21
1.821999999999999
 31
0.0
  0
LINE
  5
270
  8
0
  6
CONTINUOUS
 62
     0
 10
5.5649624726999987
 20
1.7333333333000001
 30
0.0
 11
5.586962472699998
 21
1.7333333333000001
 31
0.0
  0
LINE
  5
271
  8
0
  6
CONTINUOUS
 62
     0
 10
0.0
 20
1.7333333333000001
 30
0.0
 11
0.0
 21
1.7666666666999991
 31
0.0
  0
LINE
  5
272
  8
0
  6
CONTINUOUS
 62
     0
 10
0.0
 20
1.7333333333000001
 30
0.0
 11
-0.0333333333
 21
1.7333333333000001
 31
0.0
  0
LINE
  5
273
  8
0
  6
CONTINUOUS
 62
     0
 10
0.0
 20
1.7333333333000001
 30
0.0
 11
0.0
 21
1.7
 31
0.0
  0
LINE
  5
274
  8
0
  6
CONTINUOUS
 62
     0
 10
0.0
 20
1.7333333333000001
 30
0.0
 11
0.0333333333
 21
1.7333333333000001
 31
0.0
  0
LINE
  5
275
  8
0
  6
CONTINUOUS
 62
     0
 10
0.0
 20
1.8
 30
0.0
 11
0.0
 21
1.821999999999999
 31
0.0
  0
LINE
  5
276
  8
0
  6
CONTINUOUS
 62
     0
 10
-0.0666666667
 20
1.7333333333000001
 30
0.0
 11
-0.0886666667
 21
1.7333333333000001
 31
0.0
  0
LINE
  5
277
  8
0
  6
CONTINUOUS
 62
     0
 10
1.582481236399998
 20
-0.9403145697000001
 30
0.0
 11
1.582481236399998
 21
-0.9069812364
 31
0.0
  0
LINE
  5
278
  8
0
  6
CONTINUOUS
 62
     0
 10
1.582481236399998
 20
-0.9403145697000001
 30
0.0
 11
1.549147902999999
 21
-0.9403145697000001
 31
0.0
  0
LINE
  5
279
  8
0
  6
CONTINUOUS
 62
     0
 10
1.582481236399998
 20
-0.9403145697000001
 30
0.0
 11
1.582481236399998
 21
-0.9736479029999999
 31
0.0
  0
LINE
  5
27A
  8
0
  6
CONTINUOUS
 62
     0
 10
1.582481236399998
 20
-0.9403145697000001
 30
0.0
 11
1.615814569699999
 21
-0.9403145697000001
 31
0.0
  0
LINE
  5
27B
  8
0
  6
CONTINUOUS
 62
     0
 10
1.5158145697000001
 20
-0.9403145697000001
 30
0.0
 11
1.4938145697
 21
-0.9403145697000001
 31
0.0
  0
LINE
  5
27C
  8
0
  6
CONTINUOUS
 62
     0
 10
1.582481236399998
 20
-1.006981236399999
 30
0.0
 11
1.582481236399998
 21
-1.0289812363999991
 31
0.0
  0
LINE
  5
27D
  8
0
  6
CONTINUOUS
 62
     0
 10
3.9158145697000002
 20
-0.9403145697000001
 30
0.0
 11
3.9158145697000002
 21
-0.9069812364
 31
0.0
  0
LINE
  5
27E
  8
0
  6
CONTINUOUS
 62
     0
 10
3.9158145697000002
 20
-0.9403145697000001
 30
0.0
 11
3.8824812363999981
 21
-0.9403145697000001
 31
0.0
  0
LINE
  5
27F
  8
0
  6
CONTINUOUS
 62
     0
 10
3.9158145697000002
 20
-0.9403145697000001
 30
0.0
 11
3.9158145697000002
 21
-0.9736479029999999
 31
0.0
  0
LINE
  5
280
  8
0
  6
CONTINUOUS
 62
     0
 10
3.9158145697000002
 20
-0.9403145697000001
 30
0.0
 11
3.9491479030000001
 21
-0.9403145697000001
 31
0.0
  0
LINE
  5
281
  8
0
  6
CONTINUOUS
 62
     0
 10
3.9158145697000002
 20
-1.006981236399999
 30
0.0
 11
3.9158145697000002
 21
-1.0289812363999991
 31
0.0
  0
LINE
  5
282
  8
0
  6
CONTINUOUS
 62
     0
 10
3.9824812363999991
 20
-0.9403145697000001
 30
0.0
 11
4.0044812364000002
 21
-0.9403145697000001
 31
0.0
  0
LINE
  5
283
  8
0
  6
CONTINUOUS
 62
     0
 10
1.582481236399998
 20
2.6736479029999991
 30
0.0
 11
1.582481236399998
 21
2.706981236399999
 31
0.0
  0
LINE
  5
284
  8
0
  6
CONTINUOUS
 62
     0
 10
1.582481236399998
 20
2.6736479029999991
 30
0.0
 11
1.549147902999999
 21
2.6736479029999991
 31
0.0
  0
LINE
  5
285
  8
0
  6
CONTINUOUS
 62
     0
 10
1.582481236399998
 20
2.6736479029999991
 30
0.0
 11
1.582481236399998
 21
2.6403145697000001
 31
0.0
  0
LINE
  5
286
  8
0
  6
CONTINUOUS
 62
     0
 10
1.582481236399998
 20
2.6736479029999991
 30
0.0
 11
1.615814569699999
 21
2.6736479029999991
 31
0.0
  0
LINE
  5
287
  8
0
  6
CONTINUOUS
 62
     0
 10
1.582481236399998
 20
2.7403145697000002
 30
0.0
 11
1.582481236399998
 21
2.7623145697
 31
0.0
  0
LINE
  5
288
  8
0
  6
CONTINUOUS
 62
     0
 10
1.5158145697000001
 20
2.6736479029999991
 30
0.0
 11
1.4938145697
 21
2.6736479029999991
 31
0.0
  0
LINE
  5
289
  8
0
  6
CONTINUOUS
 62
     0
 10
3.9158145697000002
 20
2.6736479029999991
 30
0.0
 11
3.9158145697000002
 21
2.706981236399999
 31
0.0
  0
LINE
  5
28A
  8
0
  6
CONTINUOUS
 62
     0
 10
3.9158145697000002
 20
2.6736479029999991
 30
0.0
 11
3.8824812363999981
 21
2.6736479029999991
 31
0.0
  0
LINE
  5
28B
  8
0
  6
CONTINUOUS
 62
     0
 10
3.9158145697000002
 20
2.6736479029999991
 30
0.0
 11
3.9158145697000002
 21
2.6403145697000001
 31
0.0
  0
LINE
  5
28C
  8
0
  6
CONTINUOUS
 62
     0
 10
3.9158145697000002
 20
2.6736479029999991
 30
0.0
 11
3.9491479030000001
 21
2.6736479029999991
 31
0.0
  0
LINE
  5
28D
  8
0
  6
CONTINUOUS
 62
     0
 10
3.9158145697000002
 20
2.7403145697000002
 30
0.0
 11
3.9158145697000002
 21
2.7623145697
 31
0.0
  0
LINE
  5
28E
  8
0
  6
CONTINUOUS
 62
     0
 10
3.9824812363999991
 20
2.6736479029999991
 30
0.0
 11
4.0044812364000002
 21
2.6736479029999991
 31
0.0
  0
LINE
  5
28F
  8
0
  6
CENTERX2
 62
     0
 10
0.0666666667
 20
0.0
 30
0.0
 11
5.4316291394
 21
0.0
 31
0.0
  0
LINE
  5
290
  8
0
  6
CENTERX2
 62
     0
 10
5.498295806099998
 20
0.0666666667
 30
0.0
 11
5.498295806099998
 21
1.6666666666999981
 31
0.0
  0
LINE
  5
291
  8
0
  6
CENTERX2
 62
     0
 10
0.0666666667
 20
1.7333333333000001
 30
0.0
 11
5.4316291394
 21
1.7333333333000001
 31
0.0
  0
LINE
  5
292
  8
0
  6
CENTERX2
 62
     0
 10
0.0
 20
0.0666666667
 30
0.0
 11
0.0
 21
1.6666666666999981
 31
0.0
  0
LINE
  5
293
  8
0
  6
CENTERX2
 62
     0
 10
1.649147903
 20
-0.9403145697000001
 30
0.0
 11
3.849147903
 21
-0.9403145697000001
 31
0.0
  0
LINE
  5
294
  8
0
  6
CENTERX2
 62
     0
 10
1.582481236399998
 20
-0.873647903
 30
0.0
 11
1.582481236399998
 21
2.606981236399998
 31
0.0
  0
LINE
  5
295
  8
0
  6
CENTERX2
 62
     0
 10
1.649147903
 20
2.6736479029999991
 30
0.0
 11
3.849147903
 21
2.6736479029999991
 31
0.0
  0
LINE
  5
296
  8
0
  6
CENTERX2
 62
     0
 10
3.9158145697000002
 20
-0.873647903
 30
0.0
 11
3.9158145697000002
 21
2.606981236399998
 31
0.0
  0
ENDBLK
  5
297
  8
0
  0
BLOCK
  8
0
  2
*D28
 70
     1
 10
0.0
 20
0.0
 30
0.0
  3
*D28
  1

  0
LINE
  5
37C
  8
0
  6
CONTINUOUS
 62
     0
 10
1.363820681190353
 20
1.0577303974545651
 30
0.0
 11
1.363820681190353
 21
0.6304839446545647
 31
0.0
  0
LINE
  5
37D
  8
0
  6
CONTINUOUS
 62
     0
 10
1.459672778190354
 20
1.8038970641545631
 30
0.0
 11
1.459672778190354
 21
0.6304839446545647
 31
0.0
  0
LINE
  5
37E
  8
0
  6
CONTINUOUS
 62
     0
 10
1.5376727781903541
 20
0.6304839446545647
 30
0.0
 11
1.615672778190353
 21
0.6304839446545647
 31
0.0
  0
LINE
  5
37F
  8
0
  6
CONTINUOUS
 62
     0
 10
1.2858206811903541
 20
0.6304839446545647
 30
0.0
 11
1.1076198937903541
 21
0.6304839446545647
 31
0.0
  0
LINE
  5
380
  8
0
  6
CONTINUOUS
 62
     0
 10
1.459672778190354
 20
0.6304839446545647
 30
0.0
 11
1.363820681190353
 21
0.6304839446545647
 31
0.0
  0
SOLID
  5
381
  8
0
  6
CONTINUOUS
 62
     0
 10
1.5376727781903541
 20
0.6434839446545647
 30
0.0
 11
1.5376727781903541
 21
0.6174839446545647
 31
0.0
 12
1.459672778190354
 22
0.6304839446545647
 32
0.0
 13
1.459672778190354
 23
0.6304839446545647
 33
0.0
  0
SOLID
  5
382
  8
0
  6
CONTINUOUS
 62
     0
 10
1.2858206811903541
 20
0.6434839446545647
 30
0.0
 11
1.2858206811903541
 21
0.6174839446545647
 31
0.0
 12
1.363820681190353
 22
0.6304839446545647
 32
0.0
 13
1.363820681190353
 23
0.6304839446545647
 33
0.0
  0
INSERT
  5
383
  8
0
  2
*U29
 10
0.0
 20
0.0
 30
0.0
  0
POINT
  5
384
  8
DEFPOINTS
  6
CONTINUOUS
 62
     0
 10
1.363820681190353
 20
1.1202303974545651
 30
0.0
  0
POINT
  5
385
  8
DEFPOINTS
  6
CONTINUOUS
 62
     0
 10
1.459672778190354
 20
1.8663970641545631
 30
0.0
  0
POINT
  5
386
  8
DEFPOINTS
  6
CONTINUOUS
 62
     0
 10
1.459672778190354
 20
0.6304839446545647
 30
0.0
  0
ENDBLK
  5
2F0
  8
0
  0
BLOCK
  8
0
  2
*U29
 70
     1
 10
0.0
 20
0.0
 30
0.0
  3
*U29
  1

  0
TEXT
  5
492
  8
0
 62
     0
 10
0.8576198937903541
 20
0.5804839446545648
 30
0.0
 40
0.1
  1
.288
 41
0.75
  7
SLDTEXTSTYLE2
  0
ENDBLK
  5
494
  8
0
  0
BLOCK
  8
0
  2
*D30
 70
     1
 10
0.0
 20
0.0
 30
0.0
  3
*D30
  1

  0
LINE
  5
387
  8
0
  6
CONTINUOUS
 62
     0
 10
1.459672778190354
 20
1.8038970641545631
 30
0.0
 11
1.459672778190354
 21
0.6304839446545647
 31
0.0
  0
LINE
  5
388
  8
0
  6
CONTINUOUS
 62
     0
 10
3.042154014590353
 20
0.863582494454565
 30
0.0
 11
3.042154014590353
 21
0.6304839446545647
 31
0.0
  0
LINE
  5
389
  8
0
  6
CONTINUOUS
 62
     0
 10
1.5376727781903541
 20
0.6304839446545647
 30
0.0
 11
2.0759133963903542
 21
0.6304839446545647
 31
0.0
  0
LINE
  5
38A
  8
0
  6
CONTINUOUS
 62
     0
 10
2.9641540145903531
 20
0.6304839446545647
 30
0.0
 11
2.425913396390353
 21
0.6304839446545647
 31
0.0
  0
SOLID
  5
38B
  8
0
  6
CONTINUOUS
 62
     0
 10
1.5376727781903541
 20
0.6434839446545647
 30
0.0
 11
1.5376727781903541
 21
0.6174839446545647
 31
0.0
 12
1.459672778190354
 22
0.6304839446545647
 32
0.0
 13
1.459672778190354
 23
0.6304839446545647
 33
0.0
  0
SOLID
  5
38C
  8
0
  6
CONTINUOUS
 62
     0
 10
2.9641540145903531
 20
0.6434839446545647
 30
0.0
 11
2.9641540145903531
 21
0.6174839446545647
 31
0.0
 12
3.042154014590353
 22
0.6304839446545647
 32
0.0
 13
3.042154014590353
 23
0.6304839446545647
 33
0.0
  0
INSERT
  5
38D
  8
0
  2
*U31
 10
0.0
 20
0.0
 30
0.0
  0
POINT
  5
38E
  8
DEFPOINTS
  6
CONTINUOUS
 62
     0
 10
1.459672778190354
 20
1.8663970641545631
 30
0.0
  0
POINT
  5
38F
  8
DEFPOINTS
  6
CONTINUOUS
 62
     0
 10
3.042154014590353
 20
0.926082494454565
 30
0.0
  0
POINT
  5
390
  8
DEFPOINTS
  6
CONTINUOUS
 62
     0
 10
3.042154014590353
 20
0.6304839446545647
 30
0.0
  0
ENDBLK
  5
2FE
  8
0
  0
BLOCK
  8
0
  2
*U31
 70
     1
 10
0.0
 20
0.0
 30
0.0
  3
*U31
  1

  0
TEXT
  5
496
  8
0
 62
     0
 10
2.1009133963903541
 20
0.5804839446545648
 30
0.0
 40
0.1
  1
4.747
 41
0.75
  7
SLDTEXTSTYLE2
  0
ENDBLK
  5
498
  8
0
  0
BLOCK
  8
0
  2
*D32
 70
     1
 10
0.0
 20
0.0
 30
0.0
  3
*D32
  1

  0
LINE
  5
391
  8
0
  6
CONTINUOUS
 62
     0
 10
3.042154014590353
 20
0.863582494454565
 30
0.0
 11
3.042154014590353
 21
0.6304839446545647
 31
0.0
  0
LINE
  5
392
  8
0
  6
CONTINUOUS
 62
     0
 10
5.3754873478903527
 20
0.863582494454565
 30
0.0
 11
5.3754873478903527
 21
0.6304839446545647
 31
0.0
  0
LINE
  5
393
  8
0
  6
CONTINUOUS
 62
     0
 10
3.1201540145903541
 20
0.6304839446545647
 30
0.0
 11
4.052570681190355
 21
0.6304839446545647
 31
0.0
  0
LINE
  5
394
  8
0
  6
CONTINUOUS
 62
     0
 10
5.2974873478903532
 20
0.6304839446545647
 30
0.0
 11
4.365070681190355
 21
0.6304839446545647
 31
0.0
  0
SOLID
  5
395
  8
0
  6
CONTINUOUS
 62
     0
 10
3.1201540145903541
 20
0.6434839446545647
 30
0.0
 11
3.1201540145903541
 21
0.6174839446545647
 31
0.0
 12
3.042154014590353
 22
0.6304839446545647
 32
0.0
 13
3.042154014590353
 23
0.6304839446545647
 33
0.0
  0
SOLID
  5
396
  8
0
  6
CONTINUOUS
 62
     0
 10
5.2974873478903532
 20
0.6434839446545647
 30
0.0
 11
5.2974873478903532
 21
0.6174839446545647
 31
0.0
 12
5.3754873478903527
 22
0.6304839446545647
 32
0.0
 13
5.3754873478903527
 23
0.6304839446545647
 33
0.0
  0
INSERT
  5
397
  8
0
  2
*U33
 10
0.0
 20
0.0
 30
0.0
  0
POINT
  5
398
  8
DEFPOINTS
  6
CONTINUOUS
 62
     0
 10
3.042154014590353
 20
0.926082494454565
 30
0.0
  0
POINT
  5
399
  8
DEFPOINTS
  6
CONTINUOUS
 62
     0
 10
5.3754873478903527
 20
0.926082494454565
 30
0.0
  0
POINT
  5
39A
  8
DEFPOINTS
  6
CONTINUOUS
 62
     0
 10
5.3754873478903527
 20
0.6304839446545647
 30
0.0
  0
ENDBLK
  5
30B
  8
0
  0
BLOCK
  8
0
  2
*U33
 70
     1
 10
0.0
 20
0.0
 30
0.0
  3
*U33
  1

  0
TEXT
  5
49A
  8
0
 62
     0
 10
4.0775706811903554
 20
0.5804839446545648
 30
0.0
 40
0.1
  1
7.000
 41
0.75
  7
SLDTEXTSTYLE2
  0
ENDBLK
  5
49C
  8
0
  0
BLOCK
  8
0
  2
*D34
 70
     1
 10
0.0
 20
0.0
 30
0.0
  3
*D34
  1

  0
LINE
  5
39B
  8
0
  6
CONTINUOUS
 62
     0
 10
1.459672778190354
 20
1.8038970641545631
 30
0.0
 11
1.459672778190354
 21
0.4365296100545648
 31
0.0
  0
LINE
  5
39C
  8
0
  6
CONTINUOUS
 62
     0
 10
6.9579685842903531
 20
1.8038970641545631
 30
0.0
 11
6.9579685842903531
 21
0.4365296100545648
 31
0.0
  0
LINE
  5
39D
  8
0
  6
CONTINUOUS
 62
     0
 10
1.5376727781903541
 20
0.4365296100545648
 30
0.0
 11
4.0088206811903531
 21
0.4365296100545648
 31
0.0
  0
LINE
  5
39E
  8
0
  6
CONTINUOUS
 62
     0
 10
6.879968584290352
 20
0.4365296100545648
 30
0.0
 11
4.4088206811903552
 21
0.4365296100545648
 31
0.0
  0
SOLID
  5
39F
  8
0
  6
CONTINUOUS
 62
     0
 10
1.5376727781903541
 20
0.4495296100545648
 30
0.0
 11
1.5376727781903541
 21
0.4235296100545649
 31
0.0
 12
1.459672778190354
 22
0.4365296100545648
 32
0.0
 13
1.459672778190354
 23
0.4365296100545648
 33
0.0
  0
SOLID
  5
3A0
  8
0
  6
CONTINUOUS
 62
     0
 10
6.879968584290352
 20
0.4495296100545648
 30
0.0
 11
6.879968584290352
 21
0.4235296100545649
 31
0.0
 12
6.9579685842903531
 22
0.4365296100545648
 32
0.0
 13
6.9579685842903531
 23
0.4365296100545648
 33
0.0
  0
INSERT
  5
3A1
  8
0
  2
*U35
 10
0.0
 20
0.0
 30
0.0
  0
POINT
  5
3A2
  8
DEFPOINTS
  6
CONTINUOUS
 62
     0
 10
1.459672778190354
 20
1.8663970641545631
 30
0.0
  0
POINT
  5
3A3
  8
DEFPOINTS
  6
CONTINUOUS
 62
     0
 10
6.9579685842903531
 20
1.8663970641545631
 30
0.0
  0
POINT
  5
3A4
  8
DEFPOINTS
  6
CONTINUOUS
 62
     0
 10
6.9579685842903531
 20
0.4365296100545648
 30
0.0
  0
ENDBLK
  5
318
  8
0
  0
BLOCK
  8
0
  2
*U35
 70
     1
 10
0.0
 20
0.0
 30
0.0
  3
*U35
  1

  0
TEXT
  5
49E
  8
0
 62
     0
 10
4.0338206811903552
 20
0.3865296100545648
 30
0.0
 40
0.1
  1
16.495
 41
0.75
  7
SLDTEXTSTYLE2
  0
ENDBLK
  5
4A0
  8
0
  0
BLOCK
  8
0
  2
*D36
 70
     1
 10
0.0
 20
0.0
 30
0.0
  3
*D36
  1

  0
LINE
  5
3A5
  8
0
  6
CONTINUOUS
 62
     0
 10
6.826320681190353
 20
0.8302303974545651
 30
0.0
 11
7.6630214685903528
 21
0.8302303974545647
 31
0.0
  0
LINE
  5
3A6
  8
0
  6
CONTINUOUS
 62
     0
 10
5.4379873478903527
 20
0.926082494454565
 30
0.0
 11
7.6630214685903528
 21
0.9260824944545643
 31
0.0
  0
LINE
  5
3A7
  8
0
  6
CONTINUOUS
 62
     0
 10
7.6630214685903528
 20
1.0040824944545641
 30
0.0
 11
7.6630214685903528
 21
1.0820824944545631
 31
0.0
  0
LINE
  5
3A8
  8
0
  6
CONTINUOUS
 62
     0
 10
7.6630214685903528
 20
0.7522303974545652
 30
0.0
 11
7.6630214685903528
 21
0.6304839446545635
 31
0.0
  0
LINE
  5
3A9
  8
0
  6
CONTINUOUS
 62
     0
 10
7.6630214685903528
 20
0.6304839446545635
 30
0.0
 11
7.5850214685903534
 21
0.6304839446545635
 31
0.0
  0
LINE
  5
3AA
  8
0
  6
CONTINUOUS
 62
     0
 10
7.6630214685903528
 20
0.9260824944545643
 30
0.0
 11
7.6630214685903528
 21
0.8302303974545647
 31
0.0
  0
SOLID
  5
3AB
  8
0
  6
CONTINUOUS
 62
     0
 10
7.6500214685903547
 20
1.0040824944545641
 30
0.0
 11
7.6760214685903527
 21
1.0040824944545641
 31
0.0
 12
7.6630214685903528
 22
0.9260824944545643
 32
0.0
 13
7.6630214685903528
 23
0.9260824944545643
 33
0.0
  0
SOLID
  5
3AC
  8
0
  6
CONTINUOUS
 62
     0
 10
7.6500214685903547
 20
0.7522303974545652
 30
0.0
 11
7.6760214685903527
 21
0.7522303974545652
 31
0.0
 12
7.6630214685903528
 22
0.8302303974545647
 32
0.0
 13
7.6630214685903528
 23
0.8302303974545647
 33
0.0
  0
INSERT
  5
3AD
  8
0
  2
*U37
 10
0.0
 20
0.0
 30
0.0
  0
POINT
  5
3AE
  8
DEFPOINTS
  6
CONTINUOUS
 62
     0
 10
6.763820681190353
 20
0.8302303974545651
 30
0.0
  0
POINT
  5
3AF
  8
DEFPOINTS
  6
CONTINUOUS
 62
     0
 10
5.3754873478903527
 20
0.926082494454565
 30
0.0
  0
POINT
  5
3B0
  8
DEFPOINTS
  6
CONTINUOUS
 62
     0
 10
7.6630214685903528
 20
0.9260824944545643
 30
0.0
  0
ENDBLK
  5
325
  8
0
  0
BLOCK
  8
0
  2
*U37
 70
     1
 10
0.0
 20
0.0
 30
0.0
  3
*U37
  1

  0
TEXT
  5
4A2
  8
0
 62
     0
 10
7.3350214685903534
 20
0.5804839446545648
 30
0.0
 40
0.1
  1
.288
 41
0.75
  7
SLDTEXTSTYLE2
  0
ENDBLK
  5
4A4
  8
0
  0
BLOCK
  8
0
  2
*D38
 70
     1
 10
0.0
 20
0.0
 30
0.0
  3
*D38
  1

  0
LINE
  5
3B1
  8
0
  6
CONTINUOUS
 62
     0
 10
5.4379873478903527
 20
0.926082494454565
 30
0.0
 11
7.4475214685903532
 21
0.9260824944545643
 31
0.0
  0
LINE
  5
3B2
  8
0
  6
CONTINUOUS
 62
     0
 10
7.0204685842903531
 20
1.8663970641545631
 30
0.0
 11
7.4475214685903532
 21
1.8663970641545631
 31
0.0
  0
LINE
  5
3B3
  8
0
  6
CONTINUOUS
 62
     0
 10
7.4475214685903532
 20
1.0040824944545641
 30
0.0
 11
7.4475214685903532
 21
1.321239779254562
 31
0.0
  0
LINE
  5
3B4
  8
0
  6
CONTINUOUS
 62
     0
 10
7.4475214685903532
 20
1.788397064154563
 30
0.0
 11
7.4475214685903532
 21
1.4712397792545631
 31
0.0
  0
SOLID
  5
3B5
  8
0
  6
CONTINUOUS
 62
     0
 10
7.4345214685903533
 20
1.0040824944545641
 30
0.0
 11
7.460521468590354
 21
1.0040824944545641
 31
0.0
 12
7.4475214685903532
 22
0.9260824944545643
 32
0.0
 13
7.4475214685903532
 23
0.9260824944545643
 33
0.0
  0
SOLID
  5
3B6
  8
0
  6
CONTINUOUS
 62
     0
 10
7.4345214685903533
 20
1.788397064154563
 30
0.0
 11
7.460521468590354
 21
1.788397064154563
 31
0.0
 12
7.4475214685903532
 22
1.8663970641545631
 32
0.0
 13
7.4475214685903532
 23
1.8663970641545631
 33
0.0
  0
INSERT
  5
3B7
  8
0
  2
*U39
 10
0.0
 20
0.0
 30
0.0
  0
POINT
  5
3B8
  8
DEFPOINTS
  6
CONTINUOUS
 62
     0
 10
5.3754873478903527
 20
0.926082494454565
 30
0.0
  0
POINT
  5
3B9
  8
DEFPOINTS
  6
CONTINUOUS
 62
     0
 10
6.9579685842903531
 20
1.8663970641545631
 30
0.0
  0
POINT
  5
3BA
  8
DEFPOINTS
  6
CONTINUOUS
 62
     0
 10
7.4475214685903532
 20
1.8663970641545631
 30
0.0
  0
ENDBLK
  5
334
  8
0
  0
BLOCK
  8
0
  2
*U39
 70
     1
 10
0.0
 20
0.0
 30
0.0
  3
*U39
  1

  0
TEXT
  5
4A6
  8
0
 62
     0
 10
7.3100214685903531
 20
1.3462397792545631
 30
0.0
 40
0.1
  1
2.821
 41
0.75
  7
SLDTEXTSTYLE2
  0
ENDBLK
  5
4A8
  8
0
  0
BLOCK
  8
0
  2
*D40
 70
     1
 10
0.0
 20
0.0
 30
0.0
  3
*D40
  1

  0
LINE
  5
3BB
  8
0
  6
CONTINUOUS
 62
     0
 10
7.0204685842903531
 20
1.8663970641545631
 30
0.0
 11
7.4475214685903532
 21
1.8663970641545631
 31
0.0
  0
LINE
  5
3BC
  8
0
  6
CONTINUOUS
 62
     0
 10
7.0204685842903531
 20
3.599730397454564
 30
0.0
 11
7.447521468590355
 21
3.599730397454564
 31
0.0
  0
LINE
  5
3BD
  8
0
  6
CONTINUOUS
 62
     0
 10
7.4475214685903532
 20
1.9443970641545629
 30
0.0
 11
7.447521468590355
 21
2.658063730754562
 31
0.0
  0
LINE
  5
3BE
  8
0
  6
CONTINUOUS
 62
     0
 10
7.447521468590355
 20
3.5217303974545642
 30
0.0
 11
7.447521468590355
 21
2.8080637307545619
 31
0.0
  0
SOLID
  5
3BF
  8
0
  6
CONTINUOUS
 62
     0
 10
7.4345214685903533
 20
1.9443970641545629
 30
0.0
 11
7.460521468590354
 21
1.9443970641545629
 31
0.0
 12
7.4475214685903532
 22
1.8663970641545631
 32
0.0
 13
7.4475214685903532
 23
1.8663970641545631
 33
0.0
  0
SOLID
  5
3C0
  8
0
  6
CONTINUOUS
 62
     0
 10
7.4345214685903551
 20
3.5217303974545642
 30
0.0
 11
7.460521468590354
 21
3.5217303974545642
 31
0.0
 12
7.447521468590355
 22
3.599730397454564
 32
0.0
 13
7.447521468590355
 23
3.599730397454564
 33
0.0
  0
INSERT
  5
3C1
  8
0
  2
*U41
 10
0.0
 20
0.0
 30
0.0
  0
POINT
  5
3C2
  8
DEFPOINTS
  6
CONTINUOUS
 62
     0
 10
6.9579685842903531
 20
1.8663970641545631
 30
0.0
  0
POINT
  5
3C3
  8
DEFPOINTS
  6
CONTINUOUS
 62
     0
 10
6.9579685842903531
 20
3.599730397454564
 30
0.0
  0
POINT
  5
3C4
  8
DEFPOINTS
  6
CONTINUOUS
 62
     0
 10
7.447521468590355
 20
3.599730397454564
 30
0.0
  0
ENDBLK
  5
341
  8
0
  0
BLOCK
  8
0
  2
*U41
 70
     1
 10
0.0
 20
0.0
 30
0.0
  3
*U41
  1

  0
TEXT
  5
4AA
  8
0
 62
     0
 10
7.3100214685903531
 20
2.6830637307545642
 30
0.0
 40
0.1
  1
5.200
 41
0.75
  7
SLDTEXTSTYLE2
  0
ENDBLK
  5
4AC
  8
0
  0
BLOCK
  8
0
  2
*D42
 70
     1
 10
0.0
 20
0.0
 30
0.0
  3
*D42
  1

  0
LINE
  5
3C5
  8
0
  6
CONTINUOUS
 62
     0
 10
5.4379873478903527
 20
0.926082494454565
 30
0.0
 11
7.7675119852903531
 21
0.9260824944545643
 31
0.0
  0
LINE
  5
3C6
  8
0
  6
CONTINUOUS
 62
     0
 10
5.4379873478903527
 20
4.5400449671545644
 30
0.0
 11
7.767511985290354
 21
4.5400449671545617
 31
0.0
  0
LINE
  5
3C7
  8
0
  6
CONTINUOUS
 62
     0
 10
7.7675119852903531
 20
1.0040824944545641
 30
0.0
 11
7.767511985290354
 21
2.658063730754562
 31
0.0
  0
LINE
  5
3C8
  8
0
  6
CONTINUOUS
 62
     0
 10
7.767511985290354
 20
4.4620449671545632
 30
0.0
 11
7.767511985290354
 21
2.8080637307545619
 31
0.0
  0
SOLID
  5
3C9
  8
0
  6
CONTINUOUS
 62
     0
 10
7.754511985290355
 20
1.0040824944545641
 30
0.0
 11
7.7805119852903539
 21
1.0040824944545641
 31
0.0
 12
7.7675119852903531
 22
0.9260824944545643
 32
0.0
 13
7.7675119852903531
 23
0.9260824944545643
 33
0.0
  0
SOLID
  5
3CA
  8
0
  6
CONTINUOUS
 62
     0
 10
7.754511985290355
 20
4.4620449671545632
 30
0.0
 11
7.7805119852903539
 21
4.4620449671545632
 31
0.0
 12
7.767511985290354
 22
4.5400449671545617
 32
0.0
 13
7.767511985290354
 23
4.5400449671545617
 33
0.0
  0
INSERT
  5
3CB
  8
0
  2
*U43
 10
0.0
 20
0.0
 30
0.0
  0
POINT
  5
3CC
  8
DEFPOINTS
  6
CONTINUOUS
 62
     0
 10
5.3754873478903527
 20
0.926082494454565
 30
0.0
  0
POINT
  5
3CD
  8
DEFPOINTS
  6
CONTINUOUS
 62
     0
 10
5.3754873478903527
 20
4.5400449671545644
 30
0.0
  0
POINT
  5
3CE
  8
DEFPOINTS
  6
CONTINUOUS
 62
     0
 10
7.767511985290354
 20
4.5400449671545617
 30
0.0
  0
ENDBLK
  5
34E
  8
0
  0
BLOCK
  8
0
  2
*U43
 70
     1
 10
0.0
 20
0.0
 30
0.0
  3
*U43
  1

  0
TEXT
  5
4AE
  8
0
 62
     0
 10
7.5987619852903547
 20
2.6830637307545642
 30
0.0
 40
0.1
  1
10.842
 41
0.75
  7
SLDTEXTSTYLE2
  0
ENDBLK
  5
4B0
  8
0
  0
BLOCK
  8
0
  2
*D44
 70
     1
 10
0.0
 20
0.0
 30
0.0
  3
*D44
  1

  0
LINE
  5
3CF
  8
0
  6
CONTINUOUS
 62
     0
 10
1.5913206811903531
 20
0.8302303974545651
 30
0.0
 11
0.9801198937903543
 21
0.8302303974545651
 31
0.0
  0
LINE
  5
3D0
  8
0
  6
CONTINUOUS
 62
     0
 10
1.5913206811903531
 20
4.6358970641545652
 30
0.0
 11
0.9801198937903553
 21
4.6358970641545652
 31
0.0
  0
LINE
  5
3D1
  8
0
  6
CONTINUOUS
 62
     0
 10
0.9801198937903543
 20
0.9082303974545649
 30
0.0
 11
0.9801198937903546
 21
2.6580637307545629
 31
0.0
  0
LINE
  5
3D2
  8
0
  6
CONTINUOUS
 62
     0
 10
0.9801198937903553
 20
4.5578970641545631
 30
0.0
 11
0.9801198937903548
 21
2.8080637307545642
 31
0.0
  0
SOLID
  5
3D3
  8
0
  6
CONTINUOUS
 62
     0
 10
0.9671198937903544
 20
0.9082303974545649
 30
0.0
 11
0.9931198937903543
 21
0.9082303974545649
 31
0.0
 12
0.9801198937903543
 22
0.8302303974545651
 32
0.0
 13
0.9801198937903543
 23
0.8302303974545651
 33
0.0
  0
SOLID
  5
3D4
  8
0
  6
CONTINUOUS
 62
     0
 10
0.967119893790355
 20
4.5578970641545631
 30
0.0
 11
0.9931198937903552
 21
4.5578970641545631
 31
0.0
 12
0.9801198937903553
 22
4.6358970641545652
 32
0.0
 13
0.9801198937903553
 23
4.6358970641545652
 33
0.0
  0
INSERT
  5
3D5
  8
0
  2
*U45
 10
0.0
 20
0.0
 30
0.0
  0
POINT
  5
3D6
  8
DEFPOINTS
  6
CONTINUOUS
 62
     0
 10
1.6538206811903531
 20
0.8302303974545651
 30
0.0
  0
POINT
  5
3D7
  8
DEFPOINTS
  6
CONTINUOUS
 62
     0
 10
1.6538206811903531
 20
4.6358970641545652
 30
0.0
  0
POINT
  5
3D8
  8
DEFPOINTS
  6
CONTINUOUS
 62
     0
 10
0.9801198937903553
 20
4.6358970641545652
 30
0.0
  0
ENDBLK
  5
35B
  8
0
  0
BLOCK
  8
0
  2
*U45
 70
     1
 10
0.0
 20
0.0
 30
0.0
  3
*U45
  1

  0
TEXT
  5
4B2
  8
0
 62
     0
 10
0.8301198937903542
 20
2.6830637307545642
 30
0.0
 40
0.1
  1
11.417
 41
0.75
  7
SLDTEXTSTYLE2
  0
ENDBLK
  5
4B4
  8
0
  0
BLOCK
  8
0
  2
*D46
 70
     1
 10
0.0
 20
0.0
 30
0.0
  3
*D46
  1

  0
LINE
  5
3D9
  8
0
  6
CONTINUOUS
 62
     0
 10
1.363820681190353
 20
4.4083970641545651
 30
0.0
 11
1.363820681190353
 21
5.0195978515545638
 31
0.0
  0
LINE
  5
3DA
  8
0
  6
CONTINUOUS
 62
     0
 10
7.0538206811903521
 20
4.4083970641545651
 30
0.0
 11
7.0538206811903521
 21
5.0195978515545638
 31
0.0
  0
LINE
  5
3DB
  8
0
  6
CONTINUOUS
 62
     0
 10
1.4418206811903529
 20
5.0195978515545638
 30
0.0
 11
4.021320681190355
 21
5.0195978515545638
 31
0.0
  0
LINE
  5
3DC
  8
0
  6
CONTINUOUS
 62
     0
 10
6.9758206811903518
 20
5.0195978515545638
 30
0.0
 11
4.396320681190355
 21
5.0195978515545638
 31
0.0
  0
SOLID
  5
3DD
  8
0
  6
CONTINUOUS
 62
     0
 10
1.4418206811903529
 20
5.0325978515545637
 30
0.0
 11
1.4418206811903529
 21
5.0065978515545639
 31
0.0
 12
1.363820681190353
 22
5.0195978515545638
 32
0.0
 13
1.363820681190353
 23
5.0195978515545638
 33
0.0
  0
SOLID
  5
3DE
  8
0
  6
CONTINUOUS
 62
     0
 10
6.9758206811903518
 20
5.0325978515545637
 30
0.0
 11
6.9758206811903518
 21
5.0065978515545639
 31
0.0
 12
7.0538206811903521
 22
5.0195978515545638
 32
0.0
 13
7.0538206811903521
 23
5.0195978515545638
 33
0.0
  0
INSERT
  5
3DF
  8
0
  2
*U47
 10
0.0
 20
0.0
 30
0.0
  0
POINT
  5
3E0
  8
DEFPOINTS
  6
CONTINUOUS
 62
     0
 10
1.363820681190353
 20
4.3458970641545651
 30
0.0
  0
POINT
  5
3E1
  8
DEFPOINTS
  6
CONTINUOUS
 62
     0
 10
7.0538206811903521
 20
4.3458970641545651
 30
0.0
  0
POINT
  5
3E2
  8
DEFPOINTS
  6
CONTINUOUS
 62
     0
 10
7.0538206811903521
 20
5.0195978515545638
 30
0.0
  0
ENDBLK
  5
368
  8
0
  0
BLOCK
  8
0
  2
*U47
 70
     1
 10
0.0
 20
0.0
 30
0.0
  3
*U47
  1

  0
TEXT
  5
4B6
  8
0
 62
     0
 10
4.0463206811903554
 20
4.969597851554564
 30
0.0
 40
0.1
  1
17.070
 41
0.75
  7
SLDTEXTSTYLE2
  0
ENDBLK
  5
4B8
  8
0
  0
BLOCK
  8
0
  2
*D48
 70
     1
 10
0.0
 20
0.0
 30
0.0
  3
*D48
  1

  0
LINE
  5
3E3
  8
0
  6
CONTINUOUS
 62
     0
 10
0.8338919994903545
 20
5.0252611441545652
 30
0.0
 11
0.9349336732117785
 21
5.025261144154566
 31
0.0
  0
LINE
  5
3E4
  8
0
  6
CONTINUOUS
 62
     0
 10
0.9349336732117785
 20
5.025261144154566
 30
0.0
 11
1.386356972885316
 21
4.598656168310546
 31
0.0
  0
INSERT
  5
3E5
  8
0
  2
*U49
 10
0.0
 20
0.0
 30
0.0
  0
SOLID
  5
3E6
  8
0
  6
CONTINUOUS
 62
     0
 10
1.395285962977979
 20
4.6081046145280542
 30
0.0
 11
1.3774279827926521
 21
4.5892077220930414
 31
0.0
 12
1.4430476501903531
 22
4.5450822277545644
 32
0.0
 13
1.4430476501903531
 23
4.5450822277545644
 33
0.0
  0
POINT
  5
3E7
  8
DEFPOINTS
  6
CONTINUOUS
 62
     0
 10
1.4430476501903531
 20
4.5450822277545644
 30
0.0
  0
POINT
  5
3E8
  8
DEFPOINTS
  6
CONTINUOUS
 62
     0
 10
1.6538206811903531
 20
4.3458970641545642
 30
0.0
  0
ENDBLK
  5
375
  8
0
  0
BLOCK
  8
0
  2
*U49
 70
     1
 10
0.0
 20
0.0
 30
0.0
  3
*U49
  1

  0
TEXT
  5
4BA
  8
0
 62
     0
 10
0.5213919994903551
 20
4.9752611441545662
 30
0.0
 40
0.1
  1
R.870
 41
0.75
  7
SLDTEXTSTYLE2
  0
ENDBLK
  5
4BC
  8
0
  0
BLOCK
  8
0
  2
*D50
 70
     1
 10
0.0
 20
0.0
 30
0.0
  3
*D50
  1

  0
LINE
  5
401
  8
0
 62
     0
 10
1.363820586890353
 20
7.6340635956782759
 30
0.0
 11
1.363820586890353
 21
9.3124123897877027
 31
0.0
  0
LINE
  5
402
  8
0
 62
     0
 10
18.433820586890349
 20
7.6340635956782759
 30
0.0
 11
18.433820586890349
 21
9.3124123897877027
 31
0.0
  0
LINE
  5
403
  8
0
 62
     0
 10
1.5438205868903541
 20
9.1324123897876994
 30
0.0
 11
9.3740456892095914
 21
9.1324123897876994
 31
0.0
  0
LINE
  5
404
  8
0
 62
     0
 10
18.253820586890338
 20
9.1324123897876994
 30
0.0
 11
10.42359548457112
 21
9.1324123897876994
 31
0.0
  0
SOLID
  5
405
  8
0
 62
     0
 10
1.5438205868903541
 20
9.1624123897877023
 30
0.0
 11
1.5438205868903541
 21
9.1024123897877036
 31
0.0
 12
1.363820586890353
 22
9.1324123897876994
 32
0.0
 13
1.363820586890353
 23
9.1324123897876994
 33
0.0
  0
SOLID
  5
406
  8
0
 62
     0
 10
18.253820586890338
 20
9.1624123897877023
 30
0.0
 11
18.253820586890338
 21
9.1024123897877036
 31
0.0
 12
18.433820586890349
 22
9.1324123897876994
 32
0.0
 13
18.433820586890349
 23
9.1324123897876994
 33
0.0
  0
INSERT
  5
407
  8
0
  2
*U51
 10
0.0
 20
0.0
 30
0.0
  0
POINT
  5
408
  8
DEFPOINTS
 62
     0
 10
1.363820586890353
 20
7.5715635956782759
 30
0.0
  0
POINT
  5
409
  8
DEFPOINTS
 62
     0
 10
18.433820586890349
 20
7.5715635956782759
 30
0.0
  0
POINT
  5
40A
  8
DEFPOINTS
 62
     0
 10
18.433820586890349
 20
9.1324123897876994
 30
0.0
  0
ENDBLK
  5
3F5
  8
0
  0
BLOCK
  8
0
  2
*U51
 70
     1
 10
0.0
 20
0.0
 30
0.0
  3
*U51
  1

  0
TEXT
  5
4C1
  8
0
 62
     0
 10
9.4366650616516061
 20
9.043947178327949
 30
0.0
 40
0.18
  1
17.0700
  0
ENDBLK
  5
4C3
  8
0
  0
BLOCK
  8
0
  2
*D53
 70
     1
 10
0.0
 20
0.0
 30
0.0
  3
*D53
  1

  0
LINE
  5
5CA
  8
0
 62
     0
 10
16.711320426277268
 20
11.90073146764284
 30
0.0
 11
20.324109618861598
 21
11.90073146764284
 31
0.0
  0
LINE
  5
5CB
  8
0
 62
     0
 10
16.711320426277268
 20
0.4632314676428458
 30
0.0
 11
20.324109618861591
 21
0.4632314676428448
 31
0.0
  0
LINE
  5
5CC
  8
0
 62
     0
 10
20.144109618861592
 20
11.72073146764283
 30
0.0
 11
20.144109618861592
 21
6.361981467642841
 31
0.0
  0
LINE
  5
5CD
  8
0
 62
     0
 10
20.144109618861592
 20
0.6432314676428448
 30
0.0
 11
20.144109618861592
 21
6.0019814676428407
 31
0.0
  0
SOLID
  5
5CE
  8
0
 62
     0
 10
20.11410961886159
 20
11.72073146764283
 30
0.0
 11
20.174109618861589
 21
11.72073146764283
 31
0.0
 12
20.144109618861592
 22
11.90073146764284
 32
0.0
 13
20.144109618861592
 23
11.90073146764284
 33
0.0
  0
SOLID
  5
5CF
  8
0
 62
     0
 10
20.11410961886159
 20
0.6432314676428448
 30
0.0
 11
20.174109618861589
 21
0.6432314676428448
 31
0.0
 12
20.144109618861592
 22
0.4632314676428448
 32
0.0
 13
20.144109618861592
 23
0.4632314676428448
 33
0.0
  0
INSERT
  5
5D0
  8
0
  2
*U54
 10
0.0
 20
0.0
 30
0.0
  0
POINT
  5
5D1
  8
DEFPOINTS
 62
     0
 10
16.648820426277268
 20
11.90073146764284
 30
0.0
  0
POINT
  5
5D2
  8
DEFPOINTS
 62
     0
 10
16.648820426277268
 20
0.4632314676428458
 30
0.0
  0
POINT
  5
5D3
  8
DEFPOINTS
 62
     0
 10
20.144109618861592
 20
0.4632314676428448
 30
0.0
  0
ENDBLK
  5
5C9
  8
0
  0
BLOCK
  8
0
  2
*U54
 70
     1
 10
0.0
 20
0.0
 30
0.0
  3
*U54
  1

  0
TEXT
  5
630
  8
0
 62
     0
 10
19.664109618861591
 20
6.0919814676428441
 30
0.0
 40
0.18
  1
11.4375
  0
ENDBLK
  5
632
  8
0
  0
ENDSEC
  0
SECTION
  2
ENTITIES
  0
CIRCLE
  5
2C9
  8
0
 10
0.7813769904959556
 20
8.7819813814135852
 30
0.0
 40
0.0967499967931381
  0
CIRCLE
  5
2CB
  8
0
 10
12.52882031021673
 20
11.60292499701095
 30
0.0
 40
0.0967499967931408
  0
CIRCLE
  5
2CD
  8
0
 10
5.5288205423378081
 20
11.60292499701095
 30
0.0
 40
0.0967499967931408
  0
CIRCLE
  5
2DB
  8
0
 10
5.5288205423378081
 20
0.7610379382747357
 30
0.0
 40
0.0967499967931369
  0
CIRCLE
  5
2DC
  8
0
 10
17.276263862058581
 20
3.5819815538721032
 30
0.0
 40
0.0967499967931381
  0
CIRCLE
  5
2DD
  8
0
 10
17.276263862058581
 20
8.7819813814135852
 30
0.0
 40
0.0967499967931381
  0
CIRCLE
  5
2DE
  8
0
 10
12.52882031021673
 20
0.7610379382747357
 30
0.0
 40
0.0967499967931369
  0
CIRCLE
  5
2DF
  8
0
 10
0.7813769904959556
 20
3.5819815538721032
 30
0.0
 40
0.0967499967931381
  0
POLYLINE
  5
5C1
  8
0
 66
     1
 10
0.0
 20
0.0
 30
0.0
 70
     1
  0
VERTEX
  5
626
  8
0
 10
17.497570426277271
 20
11.05198146764284
 30
0.0
 42
0.4142135623730969
  0
VERTEX
  5
627
  8
0
 10
16.648820426277268
 20
11.90073146764284
 30
0.0
  0
VERTEX
  5
628
  8
0
 10
1.408820426277269
 20
11.90073146764284
 30
0.0
 42
0.4142135623730945
  0
VERTEX
  5
629
  8
0
 10
0.5600704262772709
 20
11.05198146764284
 30
0.0
  0
VERTEX
  5
62A
  8
0
 10
0.5600704262772709
 20
1.3119814676428461
 30
0.0
 42
0.4142135623730953
  0
VERTEX
  5
62B
  8
0
 10
1.408820426277269
 20
0.4632314676428462
 30
0.0
  0
VERTEX
  5
62C
  8
0
 10
16.648820426277268
 20
0.4632314676428458
 30
0.0
 42
0.4142135623730976
  0
VERTEX
  5
62D
  8
0
 10
17.497570426277271
 20
1.311981467642845
 30
0.0
  0
SEQEND
  5
62E
  8
0
  0
ENDSEC
  0
EOF
