  0
SECTION
  2
HEADER
  9
$ACADVER
  1
AC1009
  9
$INSBASE
 10
0.0
 20
0.0
 30
0.0
  9
$EXTMIN
 10
0.2247726561575471
 20
-2.364392292769312
 30
0.0
  9
$EXTMAX
 10
29.910242149360361
 20
7.9350963631074087
 30
0.0
  9
$LIMMIN
 10
0.0
 20
0.0
  9
$LIMMAX
 10
12.0
 20
9.0
  9
$ORTHOMODE
 70
     0
  9
$REGENMODE
 70
     1
  9
$FILLMODE
 70
     1
  9
$QTEXTMODE
 70
     0
  9
$MIRRTEXT
 70
     0
  9
$DRAGMODE
 70
     2
  9
$LTSCALE
 40
1.0
  9
$OSMODE
 70
  2087
  9
$ATTMODE
 70
     1
  9
$TEXTSIZE
 40
0.2
  9
$TRACEWID
 40
0.05
  9
$TEXTSTYLE
  7
STANDARD
  9
$CLAYER
  8
0
  9
$CELTYPE
  6
BYLAYER
  9
$CECOLOR
 62
     1
  9
$DIMSCALE
 40
1.0
  9
$DIMASZ
 40
0.18
  9
$DIMEXO
 40
0.0625
  9
$DIMDLI
 40
0.38
  9
$DIMRND
 40
0.0
  9
$DIMDLE
 40
0.0
  9
$DIMEXE
 40
0.18
  9
$DIMTP
 40
0.0
  9
$DIMTM
 40
0.0
  9
$DIMTXT
 40
0.18
  9
$DIMCEN
 40
0.09
  9
$DIMTSZ
 40
0.0
  9
$DIMTOL
 70
     0
  9
$DIMLIM
 70
     0
  9
$DIMTIH
 70
     1
  9
$DIMTOH
 70
     1
  9
$DIMSE1
 70
     0
  9
$DIMSE2
 70
     0
  9
$DIMTAD
 70
     0
  9
$DIMZIN
 70
     0
  9
$DIMBLK
  1

  9
$DIMASO
 70
     1
  9
$DIMSHO
 70
     1
  9
$DIMPOST
  1

  9
$DIMAPOST
  1

  9
$DIMALT
 70
     0
  9
$DIMALTD
 70
     2
  9
$DIMALTF
 40
25.399999999999999
  9
$DIMLFAC
 40
1.0
  9
$DIMTOFL
 70
     0
  9
$DIMTVP
 40
0.0
  9
$DIMTIX
 70
     0
  9
$DIMSOXD
 70
     0
  9
$DIMSAH
 70
     0
  9
$DIMBLK1
  1

  9
$DIMBLK2
  1

  9
$DIMSTYLE
  2
STANDARD
  9
$DIMCLRD
 70
     0
  9
$DIMCLRE
 70
     0
  9
$DIMCLRT
 70
     0
  9
$DIMTFAC
 40
1.0
  9
$DIMGAP
 40
0.09
  9
$LUNITS
 70
     2
  9
$LUPREC
 70
     4
  9
$SKETCHINC
 40
0.1
  9
$FILLETRAD
 40
0.0
  9
$AUNITS
 70
     0
  9
$AUPREC
 70
     0
  9
$MENU
  1
.
  9
$ELEVATION
 40
0.0
  9
$PELEVATION
 40
0.0
  9
$THICKNESS
 40
0.0
  9
$LIMCHECK
 70
     0
  9
$BLIPMODE
 70
     0
  9
$CHAMFERA
 40
0.0
  9
$CHAMFERB
 40
0.0
  9
$SKPOLY
 70
     0
  9
$TDCREATE
 40
2459060.424372639
  9
$TDUPDATE
 40
2459062.3352420139
  9
$TDINDWG
 40
0.0263139005
  9
$TDUSRTIMER
 40
0.0263138542
  9
$USRTIMER
 70
     1
  9
$ANGBASE
 50
0.0
  9
$ANGDIR
 70
     0
  9
$PDMODE
 70
     0
  9
$PDSIZE
 40
0.0
  9
$PLINEWID
 40
0.0
  9
$COORDS
 70
     1
  9
$SPLFRAME
 70
     0
  9
$SPLINETYPE
 70
     6
  9
$SPLINESEGS
 70
     8
  9
$ATTDIA
 70
     1
  9
$ATTREQ
 70
     1
  9
$HANDLING
 70
     1
  9
$HANDSEED
  5
8AC
  9
$SURFTAB1
 70
     6
  9
$SURFTAB2
 70
     6
  9
$SURFTYPE
 70
     6
  9
$SURFU
 70
     6
  9
$SURFV
 70
     6
  9
$UCSNAME
  2

  9
$UCSORG
 10
0.0
 20
0.0
 30
0.0
  9
$UCSXDIR
 10
1.0
 20
0.0
 30
0.0
  9
$UCSYDIR
 10
0.0
 20
1.0
 30
0.0
  9
$PUCSNAME
  2

  9
$PUCSORG
 10
0.0
 20
0.0
 30
0.0
  9
$PUCSXDIR
 10
1.0
 20
0.0
 30
0.0
  9
$PUCSYDIR
 10
0.0
 20
1.0
 30
0.0
  9
$USERI1
 70
     0
  9
$USERI2
 70
     0
  9
$USERI3
 70
     0
  9
$USERI4
 70
     0
  9
$USERI5
 70
     0
  9
$USERR1
 40
0.0
  9
$USERR2
 40
0.0
  9
$USERR3
 40
0.0
  9
$USERR4
 40
0.0
  9
$USERR5
 40
0.0
  9
$WORLDVIEW
 70
     1
  9
$SHADEDGE
 70
     3
  9
$SHADEDIF
 70
    70
  9
$TILEMODE
 70
     1
  9
$MAXACTVP
 70
    64
  9
$PLIMCHECK
 70
     0
  9
$PEXTMIN
 10
0.0
 20
0.0
 30
0.0
  9
$PEXTMAX
 10
0.0
 20
0.0
 30
0.0
  9
$PLIMMIN
 10
0.0
 20
0.0
  9
$PLIMMAX
 10
12.0
 20
9.0
  9
$UNITMODE
 70
     0
  9
$VISRETAIN
 70
     1
  9
$PLINEGEN
 70
     0
  9
$PSLTSCALE
 70
     1
  0
ENDSEC
  0
SECTION
  2
TABLES
  0
TABLE
  2
VPORT
 70
     1
  0
VPORT
  2
*ACTIVE
 70
     0
 10
0.0
 20
0.0
 11
1.0
 21
1.0
 12
2.0502777444902271
 22
0.0424307336324787
 13
0.0
 23
0.0
 14
0.5
 24
0.5
 15
0.5
 25
0.5
 16
0.0
 26
0.0
 36
1.0
 17
0.0
 27
0.0
 37
0.0
 40
10.678755674956721
 41
2.2927120669056151
 42
50.0
 43
0.0
 44
0.0
 50
0.0
 51
0.0
 71
     0
 72
  1000
 73
     1
 74
     3
 75
     0
 76
     1
 77
     0
 78
     0
  0
ENDTAB
  0
TABLE
  2
LTYPE
 70
     2
  0
LTYPE
  2
CONTINUOUS
 70
     0
  3
Solid line
 72
    65
 73
     0
 40
0.0
  0
ENDTAB
  0
TABLE
  2
LAYER
 70
     2
  0
LAYER
  2
0
 70
     0
 62
     7
  6
CONTINUOUS
  0
LAYER
  2
DEFPOINTS
 70
     0
 62
     7
  6
CONTINUOUS
  0
ENDTAB
  0
TABLE
  2
STYLE
 70
     3
  0
STYLE
  2
STANDARD
 70
     0
 40
0.0
 41
1.0
 50
0.0
 71
     0
 42
0.2
  3
txt
  4

  0
STYLE
  2
ANNOTATIVE
 70
     0
 40
0.0
 41
1.0
 50
0.0
 71
     0
 42
0.2
  3
txt
  4

  0
STYLE
  2
SLDTEXTSTYLE2
 70
     0
 40
0.0
 41
0.75
 50
0.0
 71
     0
 42
0.1
  3
TXT
  4

  0
ENDTAB
  0
TABLE
  2
VIEW
 70
     0
  0
ENDTAB
  0
TABLE
  2
UCS
 70
     0
  0
ENDTAB
  0
TABLE
  2
APPID
 70
     9
  0
APPID
  2
ACAD
 70
     0
  0
APPID
  2
ACADANNOTATIVE
 70
     0
  0
APPID
  2
ACADANNOPO
 70
     0
  0
APPID
  2
ACAD_DSTYLE_DIMJAG
 70
     0
  0
APPID
  2
ACAD_DSTYLE_DIMTALN
 70
     0
  0
APPID
  2
ACAD_MLEADERVER
 70
     0
  0
APPID
  2
ACAD_NAV_VCDISPLAY
 70
     0
  0
APPID
  2
ACAD_DSTYLE_DIMRADIAL_EXTENSION
 70
     0
  0
APPID
  2
ACAD_EXEMPT_FROM_CAD_STANDARDS
 70
     0
  0
ENDTAB
  0
TABLE
  2
DIMSTYLE
 70
     7
  0
DIMSTYLE
  2
STANDARD
 70
     0
  3

  4

  5

  6

  7

 40
1.0
 41
0.18
 42
0.0625
 43
0.38
 44
0.18
 45
0.0
 46
0.0
 47
0.0
 48
0.0
140
0.18
141
0.09
142
0.0
143
25.399999999999999
144
1.0
145
0.0
146
1.0
147
0.09
 71
     0
 72
     0
 73
     1
 74
     1
 75
     0
 76
     0
 77
     0
 78
     0
170
     0
171
     2
172
     0
173
     0
174
     0
175
     0
176
     0
177
     0
178
     0
  0
DIMSTYLE
  2
ANNOTATIVE
 70
     0
  3

  4

  5

  6

  7

 40
0.0
 41
0.18
 42
0.0625
 43
0.38
 44
0.18
 45
0.0
 46
0.0
 47
0.0
 48
0.0
140
0.18
141
0.09
142
0.0
143
25.399999999999999
144
1.0
145
0.0
146
1.0
147
0.09
 71
     0
 72
     0
 73
     1
 74
     1
 75
     0
 76
     0
 77
     0
 78
     0
170
     0
171
     2
172
     0
173
     0
174
     0
175
     0
176
     0
177
     0
178
     0
  0
DIMSTYLE
  2
SLDDIMSTYLE0
 70
     0
  3

  4

  5

  6

  7

 40
1.0
 41
0.078
 42
0.0625
 43
0.38
 44
0.0
 45
0.000000001
 46
0.0
 47
0.0
 48
0.0
140
0.1
141
0.09
142
0.0
143
25.399999999999999
144
4.0
145
0.0
146
1.0
147
0.025
 71
     0
 72
     0
 73
     1
 74
     1
 75
     0
 76
     0
 77
     0
 78
    12
170
     0
171
     2
172
     1
173
     1
174
     0
175
     0
176
     0
177
     0
178
     0
  0
DIMSTYLE
  2
SLDDIMSTYLE1
 70
     0
  3

  4

  5

  6

  7

 40
1.0
 41
0.078
 42
0.0625
 43
0.38
 44
0.0
 45
0.000000001
 46
0.0
 47
0.0
 48
0.0
140
0.1
141
0.09
142
0.0
143
25.399999999999999
144
4.0
145
0.0
146
1.0
147
0.025
 71
     0
 72
     0
 73
     1
 74
     1
 75
     0
 76
     0
 77
     0
 78
     4
170
     0
171
     2
172
     0
173
     1
174
     0
175
     0
176
     0
177
     0
178
     0
  0
DIMSTYLE
  2
SLDDIMSTYLE2
 70
     0
  3

  4

  5

  6

  7

 40
1.0
 41
0.078
 42
0.0625
 43
0.38
 44
0.0
 45
0.000000001
 46
0.0
 47
0.0
 48
0.0
140
0.1
141
0.09
142
0.0
143
25.399999999999999
144
4.0
145
0.0
146
1.0
147
0.025
 71
     0
 72
     0
 73
     1
 74
     1
 75
     0
 76
     0
 77
     0
 78
    12
170
     0
171
     2
172
     0
173
     1
174
     0
175
     0
176
     0
177
     0
178
     0
  0
DIMSTYLE
  2
SLDDIMSTYLE3
 70
     0
  3

  4

  5

  6

  7

 40
1.0
 41
0.078
 42
0.0625
 43
0.38
 44
0.0
 45
0.000000001
 46
0.0
 47
0.0
 48
0.0
140
0.1
141
0.0
142
0.0
143
25.399999999999999
144
4.0
145
0.0
146
1.0
147
0.025
 71
     0
 72
     0
 73
     1
 74
     1
 75
     0
 76
     0
 77
     0
 78
    12
170
     0
171
     2
172
     0
173
     1
174
     0
175
     0
176
     0
177
     0
178
     0
  0
ENDTAB
  0
ENDSEC
  0
SECTION
  2
BLOCKS
  0
BLOCK
  8
0
  2
$MODEL_SPACE
 70
     0
 10
0.0
 20
0.0
 30
0.0
  3
$MODEL_SPACE
  1

  0
ENDBLK
  5
4E7
  8
0
  0
BLOCK
 67
     1
  8
0
  2
$PAPER_SPACE
 70
     0
 10
0.0
 20
0.0
 30
0.0
  3
$PAPER_SPACE
  1

  0
ENDBLK
  5
4E3
 67
     1
  8
0
  0
BLOCK
  8
0
  2
*D2
 70
     1
 10
0.0
 20
0.0
 30
0.0
  3
*D2
  1

  0
LINE
  5
1EB
  8
0
 62
     0
 10
2.291778045961359
 20
2.5626179408292482
 30
0.0
 11
2.2137780459613592
 21
2.5626179408292482
 31
0.0
  0
LINE
  5
1EC
  8
0
 62
     0
 10
2.2137780459613592
 20
2.5626179408292482
 30
0.0
 11
0.9121242937372986
 21
2.0724383445409882
 31
0.0
  0
INSERT
  5
1ED
  8
0
 62
     1
  2
*U3
 10
0.0
 20
0.0
 30
0.0
  0
SOLID
  5
1EE
  8
0
 62
     0
 10
0.9075428178984986
 20
2.0846042838445711
 30
0.0
 11
0.916705769576099
 21
2.0602724052374031
 31
0.0
 12
0.8391286579157947
 22
2.044949489508185
 32
0.0
 13
0.8391286579157947
 23
2.044949489508185
 33
0.0
  0
LINE
  5
1EF
  8
0
 62
     0
 10
0.6854914354849127
 20
2.0209848461099109
 30
0.0
 11
0.8654914354849124
 21
2.0209848461099109
 31
0.0
  0
LINE
  5
1F0
  8
0
 62
     0
 10
0.7754914354849124
 20
1.9309848461099111
 30
0.0
 11
0.7754914354849122
 21
2.1109848461099121
 31
0.0
  0
POINT
  5
1F1
  8
DEFPOINTS
 62
     0
 10
0.8391286579157947
 20
2.044949489508185
 30
0.0
  0
POINT
  5
1F2
  8
DEFPOINTS
 62
     0
 10
0.7118542130540299
 20
1.997020202711637
 30
0.0
  0
ENDBLK
  5
1F3
  8
0
  0
BLOCK
  8
0
 62
     1
  2
*U3
 70
     1
 10
0.0
 20
0.0
 30
0.0
  3
*U3
  1

  0
TEXT
  5
31D
  8
0
 62
     0
 10
2.3648635393674522
 20
2.514630219137568
 30
0.0
 40
0.1
  1
Ø0.544
  0
ENDBLK
  5
31F
  8
0
 62
     1
  0
BLOCK
  8
0
  2
*D4
 70
     1
 10
0.0
 20
0.0
 30
0.0
  3
*D4
  1

  0
LINE
  5
228
  8
0
 62
     0
 10
2.6437040653038322
 20
3.480498017451167
 30
0.0
 11
2.5469569075048462
 21
3.480498017451167
 31
0.0
  0
LINE
  5
229
  8
0
 62
     0
 10
2.5469569075048462
 20
3.480498017451167
 30
0.0
 11
1.2453031552807701
 21
2.990318421162907
 31
0.0
  0
INSERT
  5
22A
  8
0
 62
     1
  2
*U5
 10
0.0
 20
0.0
 30
0.0
  0
SOLID
  5
22B
  8
0
 62
     0
 10
1.2407216794419711
 20
3.0024843604664921
 30
0.0
 11
1.249884631119571
 21
2.978152481859325
 31
0.0
 12
1.172307519459268
 22
2.962829566130107
 32
0.0
 13
1.172307519459268
 23
2.962829566130107
 33
0.0
  0
LINE
  5
22C
  8
0
 62
     0
 10
1.0186702970283841
 20
2.938864922731832
 30
0.0
 11
1.198670297028384
 21
2.938864922731832
 31
0.0
  0
LINE
  5
22D
  8
0
 62
     0
 10
1.108670297028385
 20
2.848864922731833
 30
0.0
 11
1.108670297028385
 21
3.0288649227318301
 31
0.0
  0
POINT
  5
22E
  8
DEFPOINTS
 62
     0
 10
1.172307519459268
 20
2.962829566130107
 30
0.0
  0
POINT
  5
22F
  8
DEFPOINTS
 62
     0
 10
1.0450330745975021
 20
2.9149002793335561
 30
0.0
  0
ENDBLK
  5
21F
  8
0
  0
BLOCK
  8
0
 62
     1
  2
*U5
 70
     1
 10
0.0
 20
0.0
 30
0.0
  3
*U5
  1

  0
TEXT
  5
321
  8
0
 62
     0
 10
2.6980424009109241
 20
3.4325102957594882
 30
0.0
 40
0.1
  1
Ø0.544
  0
ENDBLK
  5
323
  8
0
 62
     1
  0
BLOCK
  8
0
 62
     1
  2
*D6
 70
     1
 10
0.0
 20
0.0
 30
0.0
  3
*D6
  1

  0
LINE
  5
245
  8
0
 62
     0
 10
1.7348124806732841
 20
3.852640390790623
 30
0.0
 11
1.554812480673283
 21
3.852640390790623
 31
0.0
  0
LINE
  5
246
  8
0
 62
     0
 10
1.554812480673283
 20
3.852640390790623
 30
0.0
 11
1.2020363861637451
 21
3.5546548364259341
 31
0.0
  0
INSERT
  5
247
  8
0
 62
     1
  2
*U7
 10
0.0
 20
0.0
 30
0.0
  0
SOLID
  5
248
  8
0
 62
     0
 10
1.182677710270686
 20
3.577572987914821
 30
0.0
 11
1.221395062056803
 21
3.5317366849370502
 31
0.0
 12
1.0645274772304341
 22
3.4385027810675801
 32
0.0
 13
1.0645274772304341
 23
3.4385027810675801
 33
0.0
  0
LINE
  5
249
  8
0
 62
     0
 10
0.9388390639467577
 20
3.4083572247721121
 30
0.0
 11
1.1188390639467549
 21
3.4083572247721121
 31
0.0
  0
LINE
  5
24A
  8
0
 62
     0
 10
1.0288390639467571
 20
3.31835722477211
 30
0.0
 11
1.0288390639467571
 21
3.4983572247721111
 31
0.0
  0
POINT
  5
24B
  8
DEFPOINTS
 62
     0
 10
1.0645274772304341
 20
3.4385027810675801
 30
0.0
  0
POINT
  5
24C
  8
DEFPOINTS
 62
     0
 10
0.993150650663081
 20
3.3782116684766441
 30
0.0
  0
ENDBLK
  5
23B
  8
0
 62
     1
  0
BLOCK
  8
0
 62
     1
  2
*U7
 70
     1
 10
0.0
 20
0.0
 30
0.0
  3
*U7
  1

  0
TEXT
  5
328
  8
0
 62
     0
 10
1.8146214847660509
 20
3.7662624917456031
 30
0.0
 40
0.18
  1
Ø0.0934
  0
ENDBLK
  5
32A
  8
0
 62
     1
  0
BLOCK
  8
0
 62
     1
  2
*D8
 70
     1
 10
0.0
 20
0.0
 30
0.0
  3
*D8
  1

  0
LINE
  5
25F
  8
0
 62
     0
 10
1.7984414470328911
 20
3.578841269310395
 30
0.0
 11
1.6184414470328881
 21
3.578841269310395
 31
0.0
  0
LINE
  5
260
  8
0
 62
     0
 10
1.6184414470328881
 20
3.578841269310395
 30
0.0
 11
1.288213767161938
 21
3.4833556469690952
 31
0.0
  0
INSERT
  5
261
  8
0
 62
     1
  2
*U9
 10
0.0
 20
0.0
 30
0.0
  0
SOLID
  5
262
  8
0
 62
     0
 10
1.2798806091400521
 20
3.512175058437446
 30
0.0
 11
1.2965469251838251
 21
3.4545362355007421
 31
0.0
 12
1.115297298351817
 22
3.4333566988377711
 32
0.0
 13
1.115297298351817
 23
3.4333566988377711
 33
0.0
  0
LINE
  5
263
  8
0
 62
     0
 10
0.9388390639467582
 20
3.408357224772113
 30
0.0
 11
1.118839063946758
 21
3.408357224772113
 31
0.0
  0
LINE
  5
264
  8
0
 62
     0
 10
1.0288390639467571
 20
3.3183572247721109
 30
0.0
 11
1.0288390639467571
 21
3.4983572247721111
 31
0.0
  0
POINT
  5
265
  8
DEFPOINTS
 62
     0
 10
1.115297298351817
 20
3.4333566988377711
 30
0.0
  0
POINT
  5
266
  8
DEFPOINTS
 62
     0
 10
0.9423808295416979
 20
3.3833577507064501
 30
0.0
  0
ENDBLK
  5
255
  8
0
 62
     1
  0
BLOCK
  8
0
 62
     1
  2
*U9
 70
     1
 10
0.0
 20
0.0
 30
0.0
  3
*U9
  1

  0
TEXT
  5
32C
  8
0
 62
     0
 10
1.8782504511256599
 20
3.492463370265372
 30
0.0
 40
0.18
  1
Ø0.1800
  0
ENDBLK
  5
32E
  8
0
 62
     1
  0
BLOCK
  8
0
 62
     1
  2
*D10
 70
     1
 10
0.0
 20
0.0
 30
0.0
  3
*D10
  1

  0
LINE
  5
2A6
  8
0
 62
     0
 10
3.007884297792875
 20
1.182075061149745
 30
0.0
 11
2.8278842977928731
 21
1.182075061149745
 31
0.0
  0
LINE
  5
2A7
  8
0
 62
     0
 10
2.8278842977928731
 20
1.182075061149745
 30
0.0
 11
2.2112424860512991
 21
0.5479635153578295
 31
0.0
  0
INSERT
  5
2A8
  8
0
 62
     1
  2
*U11
 10
0.0
 20
0.0
 30
0.0
  0
SOLID
  5
2A9
  8
0
 62
     0
 10
2.189735087778192
 20
0.5688783861325188
 30
0.0
 11
2.232749884324404
 21
0.5270486445831403
 31
0.0
 12
2.0857532614031631
 22
0.4189191257191871
 32
0.0
 13
2.0857532614031631
 23
0.4189191257191871
 33
0.0
  0
LINE
  5
2AA
  8
0
 62
     0
 10
1.933008649079093
 20
0.3543969308998662
 30
0.0
 11
2.113008649079096
 21
0.3543969308998661
 31
0.0
  0
LINE
  5
2AB
  8
0
 62
     0
 10
2.0230086490790962
 20
0.2643969308998661
 30
0.0
 11
2.0230086490790962
 21
0.444396930899866
 31
0.0
  0
POINT
  5
2AC
  8
DEFPOINTS
 62
     0
 10
2.0857532614031631
 20
0.4189191257191871
 30
0.0
  0
POINT
  5
2AD
  8
DEFPOINTS
 62
     0
 10
1.9602640367550259
 20
0.2898747360805447
 30
0.0
  0
ENDBLK
  5
29C
  8
0
 62
     1
  0
BLOCK
  8
0
 62
     1
  2
*U11
 70
     1
 10
0.0
 20
0.0
 30
0.0
  3
*U11
  1

  0
TEXT
  5
330
  8
0
 62
     0
 10
3.0876933018856461
 20
1.095697162104724
 30
0.0
 40
0.18
  1
Ø0.1800
  0
ENDBLK
  5
332
  8
0
 62
     1
  0
BLOCK
  8
0
 62
     1
  2
*D12
 70
     1
 10
0.0
 20
0.0
 30
0.0
  3
*D12
  1

  0
LINE
  5
2C1
  8
0
 62
     0
 10
0.2247728251608165
 20
4.2726747370852749
 30
0.0
 11
0.2247728251608166
 21
5.3708872935267911
 31
0.0
  0
LINE
  5
2C2
  8
0
 62
     0
 10
7.599772825160815
 20
4.2726747370852749
 30
0.0
 11
7.599772825160815
 21
5.3708872935267911
 31
0.0
  0
LINE
  5
2C3
  8
0
 62
     0
 10
0.4047728251608166
 20
5.1908872935267922
 30
0.0
 11
3.4496875591308021
 21
5.1908872935267922
 31
0.0
  0
LINE
  5
2C4
  8
0
 62
     0
 10
7.419772825160817
 20
5.1908872935267922
 30
0.0
 11
4.3748580911908279
 21
5.1908872935267922
 31
0.0
  0
SOLID
  5
2C5
  8
0
 62
     0
 10
0.4047728251608166
 20
5.2208872935267907
 30
0.0
 11
0.4047728251608166
 21
5.1608872935267911
 31
0.0
 12
0.2247728251608166
 22
5.1908872935267922
 32
0.0
 13
0.2247728251608166
 23
5.1908872935267922
 33
0.0
  0
SOLID
  5
2C6
  8
0
 62
     0
 10
7.419772825160817
 20
5.2208872935267907
 30
0.0
 11
7.419772825160817
 21
5.1608872935267911
 31
0.0
 12
7.599772825160815
 22
5.1908872935267922
 32
0.0
 13
7.599772825160815
 23
5.1908872935267922
 33
0.0
  0
INSERT
  5
2C7
  8
0
 62
     1
  2
*U13
 10
0.0
 20
0.0
 30
0.0
  0
POINT
  5
2C8
  8
DEFPOINTS
 62
     0
 10
0.2247728251608165
 20
4.2101747370852749
 30
0.0
  0
POINT
  5
2C9
  8
DEFPOINTS
 62
     0
 10
7.599772825160815
 20
4.2101747370852749
 30
0.0
  0
POINT
  5
2CA
  8
DEFPOINTS
 62
     0
 10
7.599772825160815
 20
5.1908872935267922
 30
0.0
  0
ENDBLK
  5
2B5
  8
0
 62
     1
  0
BLOCK
  8
0
 62
     1
  2
*U13
 70
     1
 10
0.0
 20
0.0
 30
0.0
  3
*U13
  1

  0
TEXT
  5
334
  8
0
 62
     0
 10
3.5277776000584962
 20
5.102483473608646
 30
0.0
 40
0.18
  1
7.3750
  0
ENDBLK
  5
336
  8
0
 62
     1
  0
BLOCK
  8
0
 62
     1
  2
*D14
 70
     1
 10
0.0
 20
0.0
 30
0.0
  3
*D14
  1

  0
LINE
  5
3D5
  8
0
 62
     0
 10
2.3834941529578311
 20
4.7831275380293876
 30
0.0
 11
2.20349415295783
 21
4.7831275380293876
 31
0.0
  0
LINE
  5
3D6
  8
0
 62
     0
 10
2.20349415295783
 20
4.7831275380293876
 30
0.0
 11
2.1026056537613051
 21
4.4561140424045664
 31
0.0
  0
INSERT
  5
3D7
  8
0
 62
     1
  2
*U15
 10
0.0
 20
0.0
 30
0.0
  0
SOLID
  5
3D8
  8
0
 62
     0
 10
2.0739389188678432
 20
4.4649581540359211
 30
0.0
 11
2.131272388654768
 21
4.4472699307732091
 31
0.0
 12
2.0495409839731651
 22
4.2841136330437859
 32
0.0
 13
2.0495409839731651
 23
4.2841136330437859
 33
0.0
  0
LINE
  5
3D9
  8
0
 62
     0
 10
1.9330086490790941
 20
4.1981134283633983
 30
0.0
 11
2.1130086490790951
 21
4.1981134283633956
 31
0.0
  0
LINE
  5
3DA
  8
0
 62
     0
 10
2.0230086490790939
 20
4.1081134283633984
 30
0.0
 11
2.0230086490790939
 21
4.2881134283633964
 31
0.0
  0
POINT
  5
3DB
  8
DEFPOINTS
 62
     0
 10
2.0495409839731651
 20
4.2841136330437859
 30
0.0
  0
POINT
  5
3DC
  8
DEFPOINTS
 62
     0
 10
1.9964763141850239
 20
4.112113223683008
 30
0.0
  0
ENDBLK
  5
3D4
  8
0
 62
     1
  0
BLOCK
  8
0
 62
     1
  2
*U15
 70
     1
 10
0.0
 20
0.0
 30
0.0
  3
*U15
  1

  0
TEXT
  5
46D
  8
0
 62
     0
 10
2.47349415295783
 20
4.6931275380293904
 30
0.0
 40
0.18
  1
\U+22050.1800
  0
ENDBLK
  5
46F
  8
0
 62
     1
  0
BLOCK
  8
0
 62
     1
  2
*D16
 70
     1
 10
0.0
 20
0.0
 30
0.0
  3
*D16
  1

  0
LINE
  5
412
  8
0
 62
     0
 10
0.2247728251608165
 20
2.338755179631633
 30
0.0
 11
0.2247728251608167
 21
5.2768469472095134
 31
0.0
  0
LINE
  5
413
  8
0
 62
     0
 10
7.599772825160815
 20
2.338755179631633
 30
0.0
 11
7.599772825160815
 21
5.2768469472095134
 31
0.0
  0
LINE
  5
414
  8
0
 62
     0
 10
0.4047728251608167
 20
5.0968469472095119
 30
0.0
 11
3.387272825160816
 21
5.0968469472095119
 31
0.0
  0
LINE
  5
415
  8
0
 62
     0
 10
7.4197728251608162
 20
5.0968469472095119
 30
0.0
 11
4.4372728251608162
 21
5.0968469472095119
 31
0.0
  0
SOLID
  5
416
  8
0
 62
     0
 10
0.4047728251608167
 20
5.1268469472095131
 30
0.0
 11
0.4047728251608167
 21
5.0668469472095117
 31
0.0
 12
0.2247728251608167
 22
5.0968469472095119
 32
0.0
 13
0.2247728251608167
 23
5.0968469472095119
 33
0.0
  0
SOLID
  5
417
  8
0
 62
     0
 10
7.4197728251608162
 20
5.1268469472095131
 30
0.0
 11
7.4197728251608162
 21
5.0668469472095117
 31
0.0
 12
7.599772825160815
 22
5.0968469472095119
 32
0.0
 13
7.599772825160815
 23
5.0968469472095119
 33
0.0
  0
INSERT
  5
418
  8
0
 62
     1
  2
*U17
 10
0.0
 20
0.0
 30
0.0
  0
POINT
  5
419
  8
DEFPOINTS
 62
     0
 10
0.2247728251608165
 20
2.276255179631633
 30
0.0
  0
POINT
  5
41A
  8
DEFPOINTS
 62
     0
 10
7.599772825160815
 20
2.276255179631633
 30
0.0
  0
POINT
  5
41B
  8
DEFPOINTS
 62
     0
 10
7.599772825160815
 20
5.0968469472095119
 30
0.0
  0
ENDBLK
  5
411
  8
0
 62
     1
  0
BLOCK
  8
0
 62
     1
  2
*U17
 70
     1
 10
0.0
 20
0.0
 30
0.0
  3
*U17
  1

  0
TEXT
  5
474
  8
0
 62
     0
 10
3.4772728251608149
 20
5.0068469472095121
 30
0.0
 40
0.18
  1
7.3750
  0
ENDBLK
  5
476
  8
0
 62
     1
  0
BLOCK
  8
0
  2
_D
 70
     0
 10
0.0
 20
0.0
 30
0.0
  3
_D
  1

  0
SOLID
  5
51B
  8
0
  6
CONTINUOUS
 62
     7
 10
6.3451258518999998
 20
4.4861701081999987
 30
0.0
 11
6.3321258518999999
 21
4.4081701082000002
 31
0.0
 12
6.3581258518999997
 22
4.4081701082000002
 32
0.0
 13
6.3581258518999997
 23
4.4081701082000002
 33
0.0
  0
SOLID
  5
51C
  8
0
  6
CONTINUOUS
 62
     7
 10
6.3451258518999998
 20
4.5499341808999993
 30
0.0
 11
6.3581258518999997
 21
4.6279341808999988
 31
0.0
 12
6.3321258518999999
 22
4.6279341808999988
 32
0.0
 13
6.3321258518999999
 23
4.6279341808999988
 33
0.0
  0
LINE
  5
51D
  8
0
  6
CONTINUOUS
 62
     7
 10
5.9270500645000004
 20
4.4861701081999987
 30
0.0
 11
6.3951258518999996
 21
4.4861701081999987
 31
0.0
  0
LINE
  5
51E
  8
0
  6
CONTINUOUS
 62
     7
 10
5.3320500644999989
 20
4.5499341808999993
 30
0.0
 11
6.3951258518999996
 21
4.5499341808999993
 31
0.0
  0
LINE
  5
51F
  8
0
  6
CONTINUOUS
 62
     7
 10
6.4451258519000003
 20
4.2817951075999989
 30
0.0
 11
6.3451258518999998
 21
4.2817951075999989
 31
0.0
  0
LINE
  5
520
  8
0
  6
CONTINUOUS
 62
     7
 10
6.3451258518999998
 20
4.2817951075999989
 30
0.0
 11
6.3451258518999998
 21
4.4861701081999987
 31
0.0
  0
LINE
  5
521
  8
0
  6
CONTINUOUS
 62
     7
 10
6.3451258518999998
 20
4.5499341808999993
 30
0.0
 11
6.3451258518999998
 21
4.6749341808999993
 31
0.0
  0
INSERT
  5
522
  8
0
 62
     1
  2
*U56
 10
0.0
 20
0.0
 30
0.0
  0
ENDBLK
  5
523
  8
0
  0
BLOCK
  8
0
  2
_D_1
 70
     0
 10
0.0
 20
0.0
 30
0.0
  3
_D_1
  1

  0
SOLID
  5
526
  8
0
  6
CONTINUOUS
 62
     7
 10
6.581346324400001
 20
4.5499341808999993
 30
0.0
 11
6.5683463244000002
 21
4.4719341808999991
 31
0.0
 12
6.5943463244
 22
4.4719341808999991
 32
0.0
 13
6.5943463244
 23
4.4719341808999991
 33
0.0
  0
SOLID
  5
527
  8
0
  6
CONTINUOUS
 62
     7
 10
6.581346324400001
 20
4.8742951082000001
 30
0.0
 11
6.5943463244
 21
4.9522951081999986
 31
0.0
 12
6.5683463244000002
 22
4.9522951081999986
 32
0.0
 13
6.5683463244000002
 23
4.9522951081999986
 33
0.0
  0
LINE
  5
528
  8
0
  6
CONTINUOUS
 62
     7
 10
5.3320500644999989
 20
4.5499341808999993
 30
0.0
 11
6.6313463243999999
 21
4.5499341808999993
 31
0.0
  0
LINE
  5
529
  8
0
  6
CONTINUOUS
 62
     7
 10
5.9226609917999991
 20
4.8742951082000001
 30
0.0
 11
6.6313463243999999
 21
4.8742951082000001
 31
0.0
  0
LINE
  5
52A
  8
0
  6
CONTINUOUS
 62
     7
 10
6.581346324400001
 20
4.5499341808999993
 30
0.0
 11
6.581346324400001
 21
4.4249341808999993
 31
0.0
  0
LINE
  5
52B
  8
0
  6
CONTINUOUS
 62
     7
 10
6.581346324400001
 20
4.8742951082000001
 30
0.0
 11
6.581346324400001
 21
4.9992951082000001
 31
0.0
  0
INSERT
  5
52C
  8
0
 62
     1
  2
*U57
 10
0.0
 20
0.0
 30
0.0
  0
ENDBLK
  5
52D
  8
0
  0
BLOCK
  8
0
  2
_D_2
 70
     0
 10
0.0
 20
0.0
 30
0.0
  3
_D_2
  1

  0
SOLID
  5
530
  8
0
  6
CONTINUOUS
 62
     7
 10
6.3451258518999998
 20
4.8742951082000001
 30
0.0
 11
6.3581258518999997
 21
4.9522951081999986
 31
0.0
 12
6.3321258518999999
 22
4.9522951081999986
 32
0.0
 13
6.3321258518999999
 23
4.9522951081999986
 33
0.0
  0
SOLID
  5
531
  8
0
  6
CONTINUOUS
 62
     7
 10
6.3451258518999998
 20
5.6242951082000001
 30
0.0
 11
6.3321258518999999
 21
5.5462951081999998
 31
0.0
 12
6.3581258518999997
 22
5.5462951081999998
 32
0.0
 13
6.3581258518999997
 23
5.5462951081999998
 33
0.0
  0
LINE
  5
532
  8
0
  6
CONTINUOUS
 62
     7
 10
5.9226609917999991
 20
4.8742951082000001
 30
0.0
 11
6.3951258518999996
 21
4.8742951082000001
 31
0.0
  0
LINE
  5
533
  8
0
  6
CONTINUOUS
 62
     7
 10
5.9226609917999991
 20
5.6242951082000001
 30
0.0
 11
6.3951258518999996
 21
5.6242951082000001
 31
0.0
  0
LINE
  5
534
  8
0
  6
CONTINUOUS
 62
     7
 10
6.3451258518999998
 20
4.8742951082000001
 30
0.0
 11
6.3451258518999998
 21
5.1699201076000003
 31
0.0
  0
LINE
  5
535
  8
0
  6
CONTINUOUS
 62
     7
 10
6.3451258518999998
 20
5.6242951082000001
 30
0.0
 11
6.3451258518999998
 21
5.328670108699999
 31
0.0
  0
INSERT
  5
536
  8
0
 62
     1
  2
*U58
 10
0.0
 20
0.0
 30
0.0
  0
ENDBLK
  5
537
  8
0
  0
BLOCK
  8
0
  2
_D_3
 70
     0
 10
0.0
 20
0.0
 30
0.0
  3
_D_3
  1

  0
SOLID
  5
53A
  8
0
  6
CONTINUOUS
 62
     7
 10
6.8175667967999987
 20
4.5499341808999993
 30
0.0
 11
6.8305667967999986
 21
4.6279341808999988
 31
0.0
 12
6.8045667967999988
 22
4.6279341808999988
 32
0.0
 13
6.8045667967999988
 23
4.6279341808999988
 33
0.0
  0
SOLID
  5
53B
  8
0
  6
CONTINUOUS
 62
     7
 10
6.8175667967999987
 20
5.9486560354999991
 30
0.0
 11
6.8045667967999988
 21
5.8706560354999988
 31
0.0
 12
6.8305667967999986
 22
5.8706560354999988
 32
0.0
 13
6.8305667967999986
 23
5.8706560354999988
 33
0.0
  0
LINE
  5
53C
  8
0
  6
CONTINUOUS
 62
     7
 10
5.3320500644999989
 20
4.5499341808999993
 30
0.0
 11
6.8675667967999994
 21
4.5499341808999993
 31
0.0
  0
LINE
  5
53D
  8
0
  6
CONTINUOUS
 62
     7
 10
5.3320500644999989
 20
5.9486560354999991
 30
0.0
 11
6.8675667967999994
 21
5.9486560354999991
 31
0.0
  0
LINE
  5
53E
  8
0
  6
CONTINUOUS
 62
     7
 10
6.8175667967999987
 20
4.5499341808999993
 30
0.0
 11
6.8175667967999987
 21
5.1699201076000003
 31
0.0
  0
LINE
  5
53F
  8
0
  6
CONTINUOUS
 62
     7
 10
6.8175667967999987
 20
5.9486560354999991
 30
0.0
 11
6.8175667967999987
 21
5.328670108699999
 31
0.0
  0
INSERT
  5
540
  8
0
 62
     1
  2
*U59
 10
0.0
 20
0.0
 30
0.0
  0
ENDBLK
  5
541
  8
0
  0
BLOCK
  8
0
  2
_D_4
 70
     0
 10
0.0
 20
0.0
 30
0.0
  3
_D_4
  1

  0
SOLID
  5
544
  8
0
  6
CONTINUOUS
 62
     7
 10
5.9514250645000004
 20
4.0924693208000003
 30
0.0
 11
6.0294250644999998
 21
4.0794693207999986
 31
0.0
 12
6.0294250644999998
 22
4.1054693208000002
 32
0.0
 13
6.0294250644999998
 23
4.1054693208000002
 33
0.0
  0
SOLID
  5
545
  8
0
  6
CONTINUOUS
 62
     7
 10
5.8876609917999989
 20
4.0924693208000003
 30
0.0
 11
5.8096609917999986
 21
4.1054693208000002
 31
0.0
 12
5.8096609917999986
 22
4.0794693207999986
 32
0.0
 13
5.8096609917999986
 23
4.0794693207999986
 33
0.0
  0
LINE
  5
546
  8
0
  6
CONTINUOUS
 62
     7
 10
5.9514250645000004
 20
4.5105451081999988
 30
0.0
 11
5.9514250645000004
 21
4.0424693207999987
 31
0.0
  0
LINE
  5
547
  8
0
  6
CONTINUOUS
 62
     7
 10
5.8876609917999989
 20
4.8392951081999991
 30
0.0
 11
5.8876609917999989
 21
4.0424693207999987
 31
0.0
  0
LINE
  5
548
  8
0
  6
CONTINUOUS
 62
     7
 10
5.9514250645000004
 20
4.0924693208000003
 30
0.0
 11
6.0508694943999997
 21
4.0924693208000003
 31
0.0
  0
LINE
  5
549
  8
0
  6
CONTINUOUS
 62
     7
 10
5.8876609917999989
 20
4.0924693208000003
 30
0.0
 11
5.7626609917999989
 21
4.0924693208000003
 31
0.0
  0
INSERT
  5
54A
  8
0
 62
     1
  2
*U60
 10
0.0
 20
0.0
 30
0.0
  0
ENDBLK
  5
54B
  8
0
  0
BLOCK
  8
0
  2
_D_5
 70
     0
 10
0.0
 20
0.0
 30
0.0
  3
_D_5
  1

  0
SOLID
  5
54E
  8
0
  6
CONTINUOUS
 62
     7
 10
5.8876609917999989
 20
4.0924693208000003
 30
0.0
 11
5.8096609917999986
 21
4.1054693208000002
 31
0.0
 12
5.8096609917999986
 22
4.0794693207999986
 32
0.0
 13
5.8096609917999986
 23
4.0794693207999986
 33
0.0
  0
SOLID
  5
54F
  8
0
  6
CONTINUOUS
 62
     7
 10
5.2970500644999987
 20
4.0924693208000003
 30
0.0
 11
5.3750500644999999
 21
4.0794693207999986
 31
0.0
 12
5.3750500644999999
 22
4.1054693208000002
 32
0.0
 13
5.3750500644999999
 23
4.1054693208000002
 33
0.0
  0
LINE
  5
550
  8
0
  6
CONTINUOUS
 62
     7
 10
5.8876609917999989
 20
4.8392951081999991
 30
0.0
 11
5.8876609917999989
 21
4.0424693207999987
 31
0.0
  0
LINE
  5
551
  8
0
  6
CONTINUOUS
 62
     7
 10
5.2970500644999987
 20
4.5149341809000001
 30
0.0
 11
5.2970500644999987
 21
4.0424693207999987
 31
0.0
  0
LINE
  5
552
  8
0
  6
CONTINUOUS
 62
     7
 10
5.8876609917999989
 20
4.0924693208000003
 30
0.0
 11
5.7586055359000001
 21
4.0924693208000003
 31
0.0
  0
LINE
  5
553
  8
0
  6
CONTINUOUS
 62
     7
 10
5.2970500644999987
 20
4.0924693208000003
 30
0.0
 11
5.4261055203000002
 21
4.0924693208000003
 31
0.0
  0
INSERT
  5
554
  8
0
 62
     1
  2
*U61
 10
0.0
 20
0.0
 30
0.0
  0
ENDBLK
  5
555
  8
0
  0
BLOCK
  8
0
  2
_D_6
 70
     0
 10
0.0
 20
0.0
 30
0.0
  3
_D_6
  1

  0
SOLID
  5
558
  8
0
  6
CONTINUOUS
 62
     7
 10
5.2970500644999987
 20
4.0924693208000003
 30
0.0
 11
5.2190500645000002
 21
4.1054693208000002
 31
0.0
 12
5.2190500645000002
 22
4.0794693207999986
 32
0.0
 13
5.2190500645000002
 23
4.0794693207999986
 33
0.0
  0
SOLID
  5
559
  8
0
  6
CONTINUOUS
 62
     7
 10
3.9220500645
 20
4.0924693208000003
 30
0.0
 11
4.000050064499999
 21
4.0794693207999986
 31
0.0
 12
4.000050064499999
 22
4.1054693208000002
 32
0.0
 13
4.000050064499999
 23
4.1054693208000002
 33
0.0
  0
LINE
  5
55A
  8
0
  6
CONTINUOUS
 62
     7
 10
5.2970500644999987
 20
4.5149341809000001
 30
0.0
 11
5.2970500644999987
 21
4.0424693207999987
 31
0.0
  0
LINE
  5
55B
  8
0
  6
CONTINUOUS
 62
     7
 10
3.9220500645
 20
4.5149341809000001
 30
0.0
 11
3.9220500645
 21
4.0424693207999987
 31
0.0
  0
LINE
  5
55C
  8
0
  6
CONTINUOUS
 62
     7
 10
5.2970500644999987
 20
4.0924693208000003
 30
0.0
 11
4.7758000723
 21
4.0924693208000003
 31
0.0
  0
LINE
  5
55D
  8
0
  6
CONTINUOUS
 62
     7
 10
3.9220500645
 20
4.0924693208000003
 30
0.0
 11
4.4433000567000001
 21
4.0924693208000003
 31
0.0
  0
INSERT
  5
55E
  8
0
 62
     1
  2
*U62
 10
0.0
 20
0.0
 30
0.0
  0
ENDBLK
  5
55F
  8
0
  0
BLOCK
  8
0
  2
_D_7
 70
     0
 10
0.0
 20
0.0
 30
0.0
  3
_D_7
  1

  0
SOLID
  5
562
  8
0
  6
CONTINUOUS
 62
     7
 10
3.3314391371999998
 20
3.856248848399999
 30
0.0
 11
3.4094391372000001
 21
3.8432488483999991
 31
0.0
 12
3.4094391372000001
 22
3.8692488483999989
 32
0.0
 13
3.4094391372000001
 23
3.8692488483999989
 33
0.0
  0
SOLID
  5
563
  8
0
  6
CONTINUOUS
 62
     7
 10
5.8876609917999989
 20
3.856248848399999
 30
0.0
 11
5.8096609917999986
 21
3.8692488483999989
 31
0.0
 12
5.8096609917999986
 22
3.8432488483999991
 32
0.0
 13
5.8096609917999986
 23
3.8432488483999991
 33
0.0
  0
LINE
  5
564
  8
0
  6
CONTINUOUS
 62
     7
 10
3.3314391371999998
 20
4.8392951081999991
 30
0.0
 11
3.3314391371999998
 21
3.8062488483999992
 31
0.0
  0
LINE
  5
565
  8
0
  6
CONTINUOUS
 62
     7
 10
5.8876609917999989
 20
4.8392951081999991
 30
0.0
 11
5.8876609917999989
 21
3.8062488483999992
 31
0.0
  0
LINE
  5
566
  8
0
  6
CONTINUOUS
 62
     7
 10
3.3314391371999998
 20
3.856248848399999
 30
0.0
 11
4.4063556085000002
 21
3.856248848399999
 31
0.0
  0
LINE
  5
567
  8
0
  6
CONTINUOUS
 62
     7
 10
5.8876609917999989
 20
3.856248848399999
 30
0.0
 11
4.812744520499999
 21
3.856248848399999
 31
0.0
  0
INSERT
  5
568
  8
0
 62
     1
  2
*U63
 10
0.0
 20
0.0
 30
0.0
  0
ENDBLK
  5
569
  8
0
  0
BLOCK
  8
0
  2
_D_8
 70
     0
 10
0.0
 20
0.0
 30
0.0
  3
_D_8
  1

  0
SOLID
  5
56C
  8
0
  6
CONTINUOUS
 62
     7
 10
5.9514250645000004
 20
6.4061208955999991
 30
0.0
 11
5.8734250645000001
 21
6.4191208955999981
 31
0.0
 12
5.8734250645000001
 22
6.3931208955999992
 32
0.0
 13
5.8734250645000001
 23
6.3931208955999992
 33
0.0
  0
SOLID
  5
56D
  8
0
  6
CONTINUOUS
 62
     7
 10
3.2676750644999988
 20
6.4061208955999991
 30
0.0
 11
3.3456750644999991
 21
6.3931208955999992
 31
0.0
 12
3.3456750644999991
 22
6.4191208955999981
 32
0.0
 13
3.3456750644999991
 23
6.4191208955999981
 33
0.0
  0
LINE
  5
56E
  8
0
  6
CONTINUOUS
 62
     7
 10
5.9514250645000004
 20
5.9880451081999997
 30
0.0
 11
5.9514250645000004
 21
6.4561208955999989
 31
0.0
  0
LINE
  5
56F
  8
0
  6
CONTINUOUS
 62
     7
 10
3.2676750644999988
 20
5.9880451081999997
 30
0.0
 11
3.2676750644999988
 21
6.4561208955999989
 31
0.0
  0
LINE
  5
570
  8
0
  6
CONTINUOUS
 62
     7
 10
5.9514250645000004
 20
6.4061208955999991
 30
0.0
 11
4.812744520499999
 21
6.4061208955999991
 31
0.0
  0
LINE
  5
571
  8
0
  6
CONTINUOUS
 62
     7
 10
3.2676750644999988
 20
6.4061208955999991
 30
0.0
 11
4.4063556085000002
 21
6.4061208955999991
 31
0.0
  0
INSERT
  5
572
  8
0
 62
     1
  2
*U64
 10
0.0
 20
0.0
 30
0.0
  0
ENDBLK
  5
573
  8
0
  0
BLOCK
  8
0
  2
_D_9
 70
     0
 10
0.0
 20
0.0
 30
0.0
  3
_D_9
  1

  0
SOLID
  5
576
  8
0
  6
CONTINUOUS
 62
     7
 10
2.873974277099999
 20
6.0124201081999997
 30
0.0
 11
2.8609742771
 21
5.9344201082000003
 31
0.0
 12
2.8869742770999989
 22
5.9344201082000003
 32
0.0
 13
2.8869742770999989
 23
5.9344201082000003
 33
0.0
  0
SOLID
  5
577
  8
0
  6
CONTINUOUS
 62
     7
 10
2.873974277099999
 20
4.4861701081999987
 30
0.0
 11
2.8869742770999989
 21
4.564170108199999
 31
0.0
 12
2.8609742771
 22
4.564170108199999
 32
0.0
 13
2.8609742771
 23
4.564170108199999
 33
0.0
  0
LINE
  5
578
  8
0
  6
CONTINUOUS
 62
     7
 10
3.2920500644999988
 20
6.0124201081999997
 30
0.0
 11
2.8239742770999992
 21
6.0124201081999997
 31
0.0
  0
LINE
  5
579
  8
0
  6
CONTINUOUS
 62
     7
 10
3.2920500644999988
 20
4.4861701081999987
 30
0.0
 11
2.8239742770999992
 21
4.4861701081999987
 31
0.0
  0
LINE
  5
57A
  8
0
  6
CONTINUOUS
 62
     7
 10
2.873974277099999
 20
6.0124201081999997
 30
0.0
 11
2.873974277099999
 21
5.328670108699999
 31
0.0
  0
LINE
  5
57B
  8
0
  6
CONTINUOUS
 62
     7
 10
2.873974277099999
 20
4.4861701081999987
 30
0.0
 11
2.873974277099999
 21
5.1699201076000003
 31
0.0
  0
INSERT
  5
57C
  8
0
 62
     1
  2
*U65
 10
0.0
 20
0.0
 30
0.0
  0
ENDBLK
  5
57D
  8
0
  0
BLOCK
  8
0
  2
_D_10
 70
     0
 10
0.0
 20
0.0
 30
0.0
  3
_D_10
  1

  0
SOLID
  5
580
  8
0
  6
CONTINUOUS
 62
     7
 10
3.9220500645
 20
4.5780591808999986
 30
0.0
 11
3.9350500644999999
 21
4.6560591808999989
 31
0.0
 12
3.9090500644999988
 22
4.6560591808999989
 32
0.0
 13
3.9090500644999988
 23
4.6560591808999989
 33
0.0
  0
LINE
  5
581
  8
0
  6
CONTINUOUS
 62
     7
 10
3.9220500645
 20
4.5780591808999986
 30
0.0
 11
3.9220500645
 21
5.074279795599999
 31
0.0
  0
LINE
  5
582
  8
0
  6
CONTINUOUS
 62
     7
 10
3.9220500645
 20
5.074279795599999
 30
0.0
 11
3.9908000644999988
 21
5.074279795599999
 31
0.0
  0
INSERT
  5
583
  8
0
 62
     1
  2
*U66
 10
0.0
 20
0.0
 30
0.0
  0
INSERT
  5
584
  8
0
 62
     1
  2
*U67
 10
0.0
 20
0.0
 30
0.0
  0
INSERT
  5
585
  8
0
 62
     1
  2
*U68
 10
0.0
 20
0.0
 30
0.0
  0
INSERT
  5
586
  8
0
  6
CONTINUOUS
 62
     7
  2
SW_SYMBOL_HOLE_SINK
 10
4.1052376512000004
 20
4.9278692027000002
 30
0.0
 41
0.0032444531
 42
0.0032444531
 43
0.0032444531
  0
INSERT
  5
587
  8
0
 62
     1
  2
*U69
 10
0.0
 20
0.0
 30
0.0
  0
INSERT
  5
588
  8
0
 62
     1
  2
*U70
 10
0.0
 20
0.0
 30
0.0
  0
ENDBLK
  5
589
  8
0
  0
BLOCK
  8
0
  2
SW_SYMBOL_HOLE_SINK
 70
     0
 10
0.0
 20
0.0
 30
0.0
  3
SW_SYMBOL_HOLE_SINK
  1

  0
LINE
  5
58C
  8
0
  6
CONTINUOUS
 62
     0
 10
0.0
 20
34.448818897599999
 30
0.0
 11
31.496062992100001
 21
2.9527559055000001
 31
0.0
  0
LINE
  5
58D
  8
0
  6
CONTINUOUS
 62
     0
 10
31.496062992100001
 20
2.9527559055000001
 30
0.0
 11
62.992125984300003
 21
34.448818897599999
 31
0.0
  0
ENDBLK
  5
58E
  8
0
  0
BLOCK
  8
0
 62
     1
  2
*D31
 70
     1
 10
0.0
 20
0.0
 30
0.0
  3
*D31
  1

  0
LINE
  5
6E1
  8
0
  6
CONTINUOUS
 62
     0
 10
26.120675050627408
 20
0.2052928618174796
 30
0.0
 11
28.06722828322026
 21
0.205292861817479
 31
0.0
  0
LINE
  5
6E2
  8
0
  6
CONTINUOUS
 62
     0
 10
23.740674941637359
 20
0.4603491642975613
 30
0.0
 11
28.06722828322026
 21
0.46034916429756
 31
0.0
  0
LINE
  5
6E3
  8
0
  6
CONTINUOUS
 62
     0
 10
28.06722828322026
 20
0.53834916429756
 30
0.0
 11
28.06722828322026
 21
0.6163491642975602
 31
0.0
  0
LINE
  5
6E4
  8
0
  6
CONTINUOUS
 62
     0
 10
28.06722828322026
 20
0.127292861817479
 30
0.0
 11
28.06722828322026
 21
-0.6122071780192285
 31
0.0
  0
LINE
  5
6E5
  8
0
  6
CONTINUOUS
 62
     0
 10
28.06722828322026
 20
-0.6122071780192285
 30
0.0
 11
27.98922828322026
 21
-0.6122071780192285
 31
0.0
  0
LINE
  5
6E6
  8
0
  6
CONTINUOUS
 62
     0
 10
28.06722828322026
 20
0.46034916429756
 30
0.0
 11
28.06722828322026
 21
0.205292861817479
 31
0.0
  0
SOLID
  5
6E7
  8
0
  6
CONTINUOUS
 62
     0
 10
28.054228283220262
 20
0.53834916429756
 30
0.0
 11
28.080228283220261
 21
0.53834916429756
 31
0.0
 12
28.06722828322026
 22
0.46034916429756
 32
0.0
 13
28.06722828322026
 23
0.46034916429756
 33
0.0
  0
SOLID
  5
6E8
  8
0
  6
CONTINUOUS
 62
     0
 10
28.054228283220262
 20
0.1272928618174791
 30
0.0
 11
28.080228283220261
 21
0.127292861817479
 31
0.0
 12
28.06722828322026
 22
0.205292861817479
 32
0.0
 13
28.06722828322026
 23
0.205292861817479
 33
0.0
  0
INSERT
  5
6E9
  8
0
 62
     1
  2
*U71
 10
0.0
 20
0.0
 30
0.0
  0
POINT
  5
6EA
  8
DEFPOINTS
  6
CONTINUOUS
 62
     0
 10
26.058175050627408
 20
0.2052928618174796
 30
0.0
  0
POINT
  5
6EB
  8
DEFPOINTS
  6
CONTINUOUS
 62
     0
 10
23.678174941637359
 20
0.4603491642975613
 30
0.0
  0
POINT
  5
6EC
  8
DEFPOINTS
  6
CONTINUOUS
 62
     0
 10
28.06722828322026
 20
0.46034916429756
 30
0.0
  0
ENDBLK
  5
5E0
  8
0
 62
     1
  0
BLOCK
  8
0
 62
     1
  2
*D32
 70
     1
 10
0.0
 20
0.0
 30
0.0
  3
*D32
  1

  0
LINE
  5
6ED
  8
0
  6
CONTINUOUS
 62
     0
 10
23.740674941637359
 20
0.4603491642975613
 30
0.0
 11
28.815360216490308
 21
0.4603491642975598
 31
0.0
  0
LINE
  5
6EE
  8
0
  6
CONTINUOUS
 62
     0
 10
26.10311875902342
 20
1.7577929329128761
 30
0.0
 11
28.815360216490308
 21
1.757792932912875
 31
0.0
  0
LINE
  5
6EF
  8
0
  6
CONTINUOUS
 62
     0
 10
28.815360216490308
 20
0.5383491642975598
 30
0.0
 11
28.815360216490308
 21
1.0340710488052129
 31
0.0
  0
LINE
  5
6F0
  8
0
  6
CONTINUOUS
 62
     0
 10
28.815360216490308
 20
1.6797929329128749
 30
0.0
 11
28.815360216490308
 21
1.1840710488052131
 31
0.0
  0
SOLID
  5
6F1
  8
0
  6
CONTINUOUS
 62
     0
 10
28.80236021649031
 20
0.5383491642975598
 30
0.0
 11
28.828360216490321
 21
0.5383491642975598
 31
0.0
 12
28.815360216490308
 22
0.4603491642975598
 32
0.0
 13
28.815360216490308
 23
0.4603491642975598
 33
0.0
  0
SOLID
  5
6F2
  8
0
  6
CONTINUOUS
 62
     0
 10
28.80236021649031
 20
1.6797929329128749
 30
0.0
 11
28.828360216490321
 21
1.6797929329128749
 31
0.0
 12
28.815360216490308
 22
1.757792932912875
 32
0.0
 13
28.815360216490308
 23
1.757792932912875
 33
0.0
  0
INSERT
  5
6F3
  8
0
 62
     1
  2
*U72
 10
0.0
 20
0.0
 30
0.0
  0
POINT
  5
6F4
  8
DEFPOINTS
  6
CONTINUOUS
 62
     0
 10
23.678174941637359
 20
0.4603491642975613
 30
0.0
  0
POINT
  5
6F5
  8
DEFPOINTS
  6
CONTINUOUS
 62
     0
 10
26.04061875902342
 20
1.7577929329128761
 30
0.0
  0
POINT
  5
6F6
  8
DEFPOINTS
  6
CONTINUOUS
 62
     0
 10
28.815360216490308
 20
1.757792932912875
 30
0.0
  0
ENDBLK
  5
5EF
  8
0
 62
     1
  0
BLOCK
  8
0
 62
     1
  2
*D33
 70
     1
 10
0.0
 20
0.0
 30
0.0
  3
*D33
  1

  0
LINE
  5
6F7
  8
0
  6
CONTINUOUS
 62
     0
 10
26.10311875902342
 20
1.7577929329128761
 30
0.0
 11
27.870478283220262
 21
1.757792932912875
 31
0.0
  0
LINE
  5
6F8
  8
0
  6
CONTINUOUS
 62
     0
 10
26.10311875902342
 20
4.7577930702952758
 30
0.0
 11
27.870478283220262
 21
4.7577930702952758
 31
0.0
  0
LINE
  5
6F9
  8
0
  6
CONTINUOUS
 62
     0
 10
27.870478283220262
 20
1.835792932912875
 30
0.0
 11
27.870478283220262
 21
3.1827930016040709
 31
0.0
  0
LINE
  5
6FA
  8
0
  6
CONTINUOUS
 62
     0
 10
27.870478283220262
 20
4.6797930702952764
 30
0.0
 11
27.870478283220262
 21
3.3327930016040721
 31
0.0
  0
SOLID
  5
6FB
  8
0
  6
CONTINUOUS
 62
     0
 10
27.85747828322026
 20
1.835792932912875
 30
0.0
 11
27.88347828322026
 21
1.835792932912875
 31
0.0
 12
27.870478283220262
 22
1.757792932912875
 32
0.0
 13
27.870478283220262
 23
1.757792932912875
 33
0.0
  0
SOLID
  5
6FC
  8
0
  6
CONTINUOUS
 62
     0
 10
27.85747828322026
 20
4.6797930702952764
 30
0.0
 11
27.88347828322026
 21
4.6797930702952764
 31
0.0
 12
27.870478283220262
 22
4.7577930702952758
 32
0.0
 13
27.870478283220262
 23
4.7577930702952758
 33
0.0
  0
INSERT
  5
6FD
  8
0
 62
     1
  2
*U73
 10
0.0
 20
0.0
 30
0.0
  0
POINT
  5
6FE
  8
DEFPOINTS
  6
CONTINUOUS
 62
     0
 10
26.04061875902342
 20
1.7577929329128761
 30
0.0
  0
POINT
  5
6FF
  8
DEFPOINTS
  6
CONTINUOUS
 62
     0
 10
26.04061875902342
 20
4.7577930702952758
 30
0.0
  0
POINT
  5
700
  8
DEFPOINTS
  6
CONTINUOUS
 62
     0
 10
27.870478283220262
 20
4.7577930702952758
 30
0.0
  0
ENDBLK
  5
5FC
  8
0
 62
     1
  0
BLOCK
  8
0
 62
     1
  2
*D34
 70
     1
 10
0.0
 20
0.0
 30
0.0
  3
*D34
  1

  0
LINE
  5
701
  8
0
  6
CONTINUOUS
 62
     0
 10
23.740674941637359
 20
0.4603491642975613
 30
0.0
 11
29.760242149360359
 21
0.4603491642975596
 31
0.0
  0
LINE
  5
702
  8
0
  6
CONTINUOUS
 62
     0
 10
23.740674941637359
 20
6.0552368389105817
 30
0.0
 11
29.760242149360359
 21
6.0552368389105808
 31
0.0
  0
LINE
  5
703
  8
0
  6
CONTINUOUS
 62
     0
 10
29.760242149360359
 20
0.5383491642975594
 30
0.0
 11
29.760242149360359
 21
3.1827930016040709
 31
0.0
  0
LINE
  5
704
  8
0
  6
CONTINUOUS
 62
     0
 10
29.760242149360359
 20
5.9772368389105814
 30
0.0
 11
29.760242149360359
 21
3.3327930016040712
 31
0.0
  0
SOLID
  5
705
  8
0
  6
CONTINUOUS
 62
     0
 10
29.74724214936036
 20
0.5383491642975596
 30
0.0
 11
29.77324214936036
 21
0.5383491642975594
 31
0.0
 12
29.760242149360359
 22
0.4603491642975596
 32
0.0
 13
29.760242149360359
 23
0.4603491642975596
 33
0.0
  0
SOLID
  5
706
  8
0
  6
CONTINUOUS
 62
     0
 10
29.74724214936036
 20
5.9772368389105814
 30
0.0
 11
29.77324214936036
 21
5.9772368389105814
 31
0.0
 12
29.760242149360359
 22
6.0552368389105808
 32
0.0
 13
29.760242149360359
 23
6.0552368389105808
 33
0.0
  0
INSERT
  5
707
  8
0
 62
     1
  2
*U74
 10
0.0
 20
0.0
 30
0.0
  0
POINT
  5
708
  8
DEFPOINTS
  6
CONTINUOUS
 62
     0
 10
23.678174941637359
 20
0.4603491642975613
 30
0.0
  0
POINT
  5
709
  8
DEFPOINTS
  6
CONTINUOUS
 62
     0
 10
23.678174941637359
 20
6.0552368389105817
 30
0.0
  0
POINT
  5
70A
  8
DEFPOINTS
  6
CONTINUOUS
 62
     0
 10
29.760242149360359
 20
6.0552368389105808
 30
0.0
  0
ENDBLK
  5
609
  8
0
 62
     1
  0
BLOCK
  8
0
 62
     1
  2
*D35
 70
     1
 10
0.0
 20
0.0
 30
0.0
  3
*D35
  1

  0
LINE
  5
70B
  8
0
  6
CONTINUOUS
 62
     0
 10
26.295675061503509
 20
0.3802928726935875
 30
0.0
 11
26.295675061503509
 21
-1.369510359899262
 31
0.0
  0
LINE
  5
70C
  8
0
  6
CONTINUOUS
 62
     0
 10
26.04061875902342
 20
1.6952929329128761
 30
0.0
 11
26.04061875902342
 21
-1.369510359899262
 31
0.0
  0
LINE
  5
70D
  8
0
  6
CONTINUOUS
 62
     0
 10
25.962618759023432
 20
-1.369510359899262
 30
0.0
 11
25.884618759023429
 21
-1.369510359899262
 31
0.0
  0
LINE
  5
70E
  8
0
  6
CONTINUOUS
 62
     0
 10
26.373675061503508
 20
-1.369510359899262
 30
0.0
 11
27.350925115265831
 21
-1.369510359899262
 31
0.0
  0
LINE
  5
70F
  8
0
  6
CONTINUOUS
 62
     0
 10
26.04061875902342
 20
-1.369510359899262
 30
0.0
 11
26.295675061503509
 21
-1.369510359899262
 31
0.0
  0
SOLID
  5
710
  8
0
  6
CONTINUOUS
 62
     0
 10
25.962618759023432
 20
-1.3565103598992621
 30
0.0
 11
25.962618759023432
 21
-1.3825103598992621
 31
0.0
 12
26.04061875902342
 22
-1.369510359899262
 32
0.0
 13
26.04061875902342
 23
-1.369510359899262
 33
0.0
  0
SOLID
  5
711
  8
0
  6
CONTINUOUS
 62
     0
 10
26.373675061503508
 20
-1.3565103598992621
 30
0.0
 11
26.373675061503508
 21
-1.3825103598992621
 31
0.0
 12
26.295675061503509
 22
-1.369510359899262
 32
0.0
 13
26.295675061503509
 23
-1.369510359899262
 33
0.0
  0
INSERT
  5
712
  8
0
 62
     1
  2
*U75
 10
0.0
 20
0.0
 30
0.0
  0
POINT
  5
713
  8
DEFPOINTS
  6
CONTINUOUS
 62
     0
 10
26.295675061503509
 20
0.4427928726935875
 30
0.0
  0
POINT
  5
714
  8
DEFPOINTS
  6
CONTINUOUS
 62
     0
 10
26.04061875902342
 20
1.7577929329128761
 30
0.0
  0
POINT
  5
715
  8
DEFPOINTS
  6
CONTINUOUS
 62
     0
 10
26.04061875902342
 20
-1.369510359899262
 30
0.0
  0
ENDBLK
  5
616
  8
0
 62
     1
  0
BLOCK
  8
0
 62
     1
  2
*D36
 70
     1
 10
0.0
 20
0.0
 30
0.0
  3
*D36
  1

  0
LINE
  5
716
  8
0
  6
CONTINUOUS
 62
     0
 10
26.04061875902342
 20
1.6952929329128761
 30
0.0
 11
26.04061875902342
 21
-1.369510359899262
 31
0.0
  0
LINE
  5
717
  8
0
  6
CONTINUOUS
 62
     0
 10
23.678174941637359
 20
0.3978491642975612
 30
0.0
 11
23.678174941637359
 21
-1.369510359899262
 31
0.0
  0
LINE
  5
718
  8
0
  6
CONTINUOUS
 62
     0
 10
25.962618759023432
 20
-1.369510359899262
 30
0.0
 11
24.996896850130391
 21
-1.369510359899262
 31
0.0
  0
LINE
  5
719
  8
0
  6
CONTINUOUS
 62
     0
 10
23.756174941637362
 20
-1.369510359899262
 30
0.0
 11
24.721896850130388
 21
-1.369510359899262
 31
0.0
  0
SOLID
  5
71A
  8
0
  6
CONTINUOUS
 62
     0
 10
25.962618759023432
 20
-1.3565103598992621
 30
0.0
 11
25.962618759023432
 21
-1.3825103598992621
 31
0.0
 12
26.04061875902342
 22
-1.369510359899262
 32
0.0
 13
26.04061875902342
 23
-1.369510359899262
 33
0.0
  0
SOLID
  5
71B
  8
0
  6
CONTINUOUS
 62
     0
 10
23.756174941637362
 20
-1.3565103598992621
 30
0.0
 11
23.756174941637362
 21
-1.3825103598992621
 31
0.0
 12
23.678174941637359
 22
-1.369510359899262
 32
0.0
 13
23.678174941637359
 23
-1.369510359899262
 33
0.0
  0
INSERT
  5
71C
  8
0
 62
     1
  2
*U76
 10
0.0
 20
0.0
 30
0.0
  0
POINT
  5
71D
  8
DEFPOINTS
  6
CONTINUOUS
 62
     0
 10
26.04061875902342
 20
1.7577929329128761
 30
0.0
  0
POINT
  5
71E
  8
DEFPOINTS
  6
CONTINUOUS
 62
     0
 10
23.678174941637359
 20
0.4603491642975613
 30
0.0
  0
POINT
  5
71F
  8
DEFPOINTS
  6
CONTINUOUS
 62
     0
 10
23.678174941637359
 20
-1.369510359899262
 30
0.0
  0
ENDBLK
  5
624
  8
0
 62
     1
  0
BLOCK
  8
0
 62
     1
  2
*D37
 70
     1
 10
0.0
 20
0.0
 30
0.0
  3
*D37
  1

  0
LINE
  5
720
  8
0
  6
CONTINUOUS
 62
     0
 10
23.678174941637359
 20
0.3978491642975612
 30
0.0
 11
23.678174941637359
 21
-1.369510359899262
 31
0.0
  0
LINE
  5
721
  8
0
  6
CONTINUOUS
 62
     0
 10
18.178174689769609
 20
0.3978491642975612
 30
0.0
 11
18.178174689769609
 21
-1.369510359899262
 31
0.0
  0
LINE
  5
722
  8
0
  6
CONTINUOUS
 62
     0
 10
23.600174941637359
 20
-1.369510359899262
 30
0.0
 11
21.121924815703501
 21
-1.369510359899262
 31
0.0
  0
LINE
  5
723
  8
0
  6
CONTINUOUS
 62
     0
 10
18.256174689769612
 20
-1.369510359899262
 30
0.0
 11
20.734424815703491
 21
-1.369510359899262
 31
0.0
  0
SOLID
  5
724
  8
0
  6
CONTINUOUS
 62
     0
 10
23.600174941637359
 20
-1.3565103598992621
 30
0.0
 11
23.600174941637359
 21
-1.3825103598992621
 31
0.0
 12
23.678174941637359
 22
-1.369510359899262
 32
0.0
 13
23.678174941637359
 23
-1.369510359899262
 33
0.0
  0
SOLID
  5
725
  8
0
  6
CONTINUOUS
 62
     0
 10
18.256174689769612
 20
-1.3565103598992621
 30
0.0
 11
18.256174689769612
 21
-1.3825103598992621
 31
0.0
 12
18.178174689769609
 22
-1.369510359899262
 32
0.0
 13
18.178174689769609
 23
-1.369510359899262
 33
0.0
  0
INSERT
  5
726
  8
0
 62
     1
  2
*U77
 10
0.0
 20
0.0
 30
0.0
  0
POINT
  5
727
  8
DEFPOINTS
  6
CONTINUOUS
 62
     0
 10
23.678174941637359
 20
0.4603491642975613
 30
0.0
  0
POINT
  5
728
  8
DEFPOINTS
  6
CONTINUOUS
 62
     0
 10
18.178174689769609
 20
0.4603491642975613
 30
0.0
  0
POINT
  5
729
  8
DEFPOINTS
  6
CONTINUOUS
 62
     0
 10
18.178174689769609
 20
-1.369510359899262
 30
0.0
  0
ENDBLK
  5
631
  8
0
 62
     1
  0
BLOCK
  8
0
 62
     1
  2
*D38
 70
     1
 10
0.0
 20
0.0
 30
0.0
  3
*D38
  1

  0
LINE
  5
72A
  8
0
  6
CONTINUOUS
 62
     0
 10
15.815730872383559
 20
1.6952929329128761
 30
0.0
 11
15.815730872383559
 21
-2.3143922927693121
 31
0.0
  0
LINE
  5
72B
  8
0
  6
CONTINUOUS
 62
     0
 10
26.04061875902342
 20
1.6952929329128761
 30
0.0
 11
26.04061875902342
 21
-2.3143922927693121
 31
0.0
  0
LINE
  5
72C
  8
0
  6
CONTINUOUS
 62
     0
 10
15.893730872383561
 20
-2.3143922927693121
 30
0.0
 11
20.796924815703491
 21
-2.3143922927693121
 31
0.0
  0
LINE
  5
72D
  8
0
  6
CONTINUOUS
 62
     0
 10
25.962618759023432
 20
-2.3143922927693121
 30
0.0
 11
21.059424815703501
 21
-2.3143922927693121
 31
0.0
  0
SOLID
  5
72E
  8
0
  6
CONTINUOUS
 62
     0
 10
15.893730872383561
 20
-2.3013922927693118
 30
0.0
 11
15.893730872383561
 21
-2.327392292769312
 31
0.0
 12
15.815730872383559
 22
-2.3143922927693121
 32
0.0
 13
15.815730872383559
 23
-2.3143922927693121
 33
0.0
  0
SOLID
  5
72F
  8
0
  6
CONTINUOUS
 62
     0
 10
25.962618759023432
 20
-2.3013922927693118
 30
0.0
 11
25.962618759023432
 21
-2.327392292769312
 31
0.0
 12
26.04061875902342
 22
-2.3143922927693121
 32
0.0
 13
26.04061875902342
 23
-2.3143922927693121
 33
0.0
  0
INSERT
  5
730
  8
0
 62
     1
  2
*U78
 10
0.0
 20
0.0
 30
0.0
  0
POINT
  5
731
  8
DEFPOINTS
  6
CONTINUOUS
 62
     0
 10
15.815730872383559
 20
1.7577929329128761
 30
0.0
  0
POINT
  5
732
  8
DEFPOINTS
  6
CONTINUOUS
 62
     0
 10
26.04061875902342
 20
1.7577929329128761
 30
0.0
  0
POINT
  5
733
  8
DEFPOINTS
  6
CONTINUOUS
 62
     0
 10
26.04061875902342
 20
-2.3143922927693121
 30
0.0
  0
ENDBLK
  5
63E
  8
0
 62
     1
  0
BLOCK
  8
0
 62
     1
  2
*D39
 70
     1
 10
0.0
 20
0.0
 30
0.0
  3
*D39
  1

  0
LINE
  5
734
  8
0
  6
CONTINUOUS
 62
     0
 10
26.295675061503509
 20
6.1352931305145626
 30
0.0
 11
26.295675061503509
 21
7.8850963631074089
 31
0.0
  0
LINE
  5
735
  8
0
  6
CONTINUOUS
 62
     0
 10
15.56067456990348
 20
6.1352931305145626
 30
0.0
 11
15.56067456990348
 21
7.8850963631074089
 31
0.0
  0
LINE
  5
736
  8
0
  6
CONTINUOUS
 62
     0
 10
26.21767506150351
 20
7.8850963631074089
 30
0.0
 11
21.1031748157035
 21
7.8850963631074089
 31
0.0
  0
LINE
  5
737
  8
0
  6
CONTINUOUS
 62
     0
 10
15.638674569903481
 20
7.8850963631074089
 30
0.0
 11
20.753174815703488
 21
7.8850963631074089
 31
0.0
  0
SOLID
  5
738
  8
0
  6
CONTINUOUS
 62
     0
 10
26.21767506150351
 20
7.8980963631074088
 30
0.0
 11
26.21767506150351
 21
7.872096363107409
 31
0.0
 12
26.295675061503509
 22
7.8850963631074089
 32
0.0
 13
26.295675061503509
 23
7.8850963631074089
 33
0.0
  0
SOLID
  5
739
  8
0
  6
CONTINUOUS
 62
     0
 10
15.638674569903481
 20
7.8980963631074088
 30
0.0
 11
15.638674569903481
 21
7.872096363107409
 31
0.0
 12
15.56067456990348
 22
7.8850963631074089
 32
0.0
 13
15.56067456990348
 23
7.8850963631074089
 33
0.0
  0
INSERT
  5
73A
  8
0
 62
     1
  2
*U79
 10
0.0
 20
0.0
 30
0.0
  0
POINT
  5
73B
  8
DEFPOINTS
  6
CONTINUOUS
 62
     0
 10
26.295675061503509
 20
6.0727931305145626
 30
0.0
  0
POINT
  5
73C
  8
DEFPOINTS
  6
CONTINUOUS
 62
     0
 10
15.56067456990348
 20
6.0727931305145626
 30
0.0
  0
POINT
  5
73D
  8
DEFPOINTS
  6
CONTINUOUS
 62
     0
 10
15.56067456990348
 20
7.8850963631074089
 30
0.0
  0
ENDBLK
  5
64B
  8
0
 62
     1
  0
BLOCK
  8
0
 62
     1
  2
*D40
 70
     1
 10
0.0
 20
0.0
 30
0.0
  3
*D40
  1

  0
LINE
  5
73E
  8
0
  6
CONTINUOUS
 62
     0
 10
15.735674580779589
 20
6.3102931413906713
 30
0.0
 11
13.985871348186731
 21
6.3102931413906722
 31
0.0
  0
LINE
  5
73F
  8
0
  6
CONTINUOUS
 62
     0
 10
15.735674580779589
 20
0.2052928618174796
 30
0.0
 11
13.985871348186731
 21
0.2052928618174801
 31
0.0
  0
LINE
  5
740
  8
0
  6
CONTINUOUS
 62
     0
 10
13.985871348186731
 20
6.232293141390671
 30
0.0
 11
13.985871348186731
 21
3.3327930016040739
 31
0.0
  0
LINE
  5
741
  8
0
  6
CONTINUOUS
 62
     0
 10
13.985871348186731
 20
0.2832928618174801
 30
0.0
 11
13.985871348186731
 21
3.1827930016040731
 31
0.0
  0
SOLID
  5
742
  8
0
  6
CONTINUOUS
 62
     0
 10
13.972871348186731
 20
6.232293141390671
 30
0.0
 11
13.99887134818673
 21
6.232293141390671
 31
0.0
 12
13.985871348186731
 22
6.3102931413906722
 32
0.0
 13
13.985871348186731
 23
6.3102931413906722
 33
0.0
  0
SOLID
  5
743
  8
0
  6
CONTINUOUS
 62
     0
 10
13.972871348186731
 20
0.2832928618174801
 30
0.0
 11
13.99887134818673
 21
0.2832928618174801
 31
0.0
 12
13.985871348186731
 22
0.2052928618174801
 32
0.0
 13
13.985871348186731
 23
0.2052928618174801
 33
0.0
  0
INSERT
  5
744
  8
0
 62
     1
  2
*U80
 10
0.0
 20
0.0
 30
0.0
  0
POINT
  5
745
  8
DEFPOINTS
  6
CONTINUOUS
 62
     0
 10
15.798174580779589
 20
6.3102931413906713
 30
0.0
  0
POINT
  5
746
  8
DEFPOINTS
  6
CONTINUOUS
 62
     0
 10
15.798174580779589
 20
0.2052928618174796
 30
0.0
  0
POINT
  5
747
  8
DEFPOINTS
  6
CONTINUOUS
 62
     0
 10
13.985871348186731
 20
0.2052928618174801
 30
0.0
  0
ENDBLK
  5
658
  8
0
 62
     1
  0
BLOCK
  8
0
 62
     1
  2
*D41
 70
     1
 10
0.0
 20
0.0
 30
0.0
  3
*D41
  1

  0
LINE
  5
748
  8
0
  6
CONTINUOUS
 62
     0
 10
20.653688822320419
 20
2.557731719145373
 30
0.0
 11
18.178174689769609
 21
2.557731719145373
 31
0.0
  0
LINE
  5
749
  8
0
  6
CONTINUOUS
 62
     0
 10
18.178174689769609
 20
2.557731719145373
 30
0.0
 11
18.178174689769609
 21
0.6508491694494019
 31
0.0
  0
INSERT
  5
74A
  8
0
 62
     1
  2
*U81
 10
0.0
 20
0.0
 30
0.0
  0
SOLID
  5
74B
  8
0
  6
CONTINUOUS
 62
     0
 10
18.165174689769611
 20
0.6508491694494019
 30
0.0
 11
18.19117468976961
 21
0.6508491694494019
 31
0.0
 12
18.178174689769609
 22
0.5728491694494018
 32
0.0
 13
18.178174689769609
 23
0.5728491694494018
 33
0.0
  0
POINT
  5
74C
  8
DEFPOINTS
  6
CONTINUOUS
 62
     0
 10
18.178174689769609
 20
0.5728491694494018
 30
0.0
  0
POINT
  5
74D
  8
DEFPOINTS
  6
CONTINUOUS
 62
     0
 10
18.178174689769609
 20
0.3478491591457242
 30
0.0
  0
ENDBLK
  5
666
  8
0
 62
     1
  0
BLOCK
  8
0
 62
     1
  2
*D43
 70
     1
 10
0.0
 20
0.0
 30
0.0
  3
*D43
  1

  0
LINE
  5
752
  8
0
 62
     0
 10
26.10311875902342
 20
4.7577930702952758
 30
0.0
 11
27.398629773356671
 21
4.7577930702952758
 31
0.0
  0
LINE
  5
753
  8
0
 62
     0
 10
26.10311875902342
 20
1.7577929329128761
 30
0.0
 11
27.398629773356671
 21
1.757792932912875
 31
0.0
  0
LINE
  5
754
  8
0
 62
     0
 10
27.218629773356671
 20
4.577793070295276
 30
0.0
 11
27.218629773356671
 21
3.4377930016040761
 31
0.0
  0
LINE
  5
755
  8
0
 62
     0
 10
27.218629773356671
 20
1.9377929329128749
 30
0.0
 11
27.218629773356671
 21
3.0777930016040762
 31
0.0
  0
SOLID
  5
756
  8
0
 62
     0
 10
27.18862977335667
 20
4.577793070295276
 30
0.0
 11
27.248629773356669
 21
4.577793070295276
 31
0.0
 12
27.218629773356671
 22
4.7577930702952758
 32
0.0
 13
27.218629773356671
 23
4.7577930702952758
 33
0.0
  0
SOLID
  5
757
  8
0
 62
     0
 10
27.18862977335667
 20
1.9377929329128749
 30
0.0
 11
27.248629773356669
 21
1.9377929329128749
 31
0.0
 12
27.218629773356671
 22
1.757792932912875
 32
0.0
 13
27.218629773356671
 23
1.757792932912875
 33
0.0
  0
INSERT
  5
758
  8
0
 62
     1
  2
*U82
 10
0.0
 20
0.0
 30
0.0
  0
POINT
  5
759
  8
DEFPOINTS
 62
     0
 10
26.04061875902342
 20
4.7577930702952758
 30
0.0
  0
POINT
  5
75A
  8
DEFPOINTS
 62
     0
 10
26.04061875902342
 20
1.7577929329128761
 30
0.0
  0
POINT
  5
75B
  8
DEFPOINTS
 62
     0
 10
27.218629773356671
 20
1.757792932912875
 30
0.0
  0
ENDBLK
  5
751
  8
0
 62
     1
  0
BLOCK
  8
0
 62
     1
  2
*D44
 70
     1
 10
0.0
 20
0.0
 30
0.0
  3
*D44
  1

  0
LINE
  5
760
  8
0
 62
     0
 10
15.560674815903489
 20
3.3202930016040759
 30
0.0
 11
15.560674815903489
 21
3.451235102208436
 31
0.0
  0
LINE
  5
761
  8
0
 62
     0
 10
26.295674815903489
 20
3.3202930016040759
 30
0.0
 11
26.295674815903489
 21
3.451235102208436
 31
0.0
  0
LINE
  5
762
  8
0
 62
     0
 10
15.740674815903491
 20
3.2712351022084358
 30
0.0
 11
20.358174815903489
 21
3.2712351022084358
 31
0.0
  0
LINE
  5
763
  8
0
 62
     0
 10
26.115674815903489
 20
3.2712351022084358
 30
0.0
 11
21.498174815903489
 21
3.2712351022084358
 31
0.0
  0
SOLID
  5
764
  8
0
 62
     0
 10
15.740674815903491
 20
3.3012351022084361
 30
0.0
 11
15.740674815903491
 21
3.241235102208436
 31
0.0
 12
15.560674815903489
 22
3.2712351022084358
 32
0.0
 13
15.560674815903489
 23
3.2712351022084358
 33
0.0
  0
SOLID
  5
765
  8
0
 62
     0
 10
26.115674815903489
 20
3.3012351022084361
 30
0.0
 11
26.115674815903489
 21
3.241235102208436
 31
0.0
 12
26.295674815903489
 22
3.2712351022084358
 32
0.0
 13
26.295674815903489
 23
3.2712351022084358
 33
0.0
  0
INSERT
  5
766
  8
0
 62
     1
  2
*U83
 10
0.0
 20
0.0
 30
0.0
  0
POINT
  5
767
  8
DEFPOINTS
 62
     0
 10
15.560674815903489
 20
3.2577930016040759
 30
0.0
  0
POINT
  5
768
  8
DEFPOINTS
 62
     0
 10
26.295674815903489
 20
3.2577930016040759
 30
0.0
  0
POINT
  5
769
  8
DEFPOINTS
 62
     0
 10
26.295674815903489
 20
3.2712351022084358
 30
0.0
  0
ENDBLK
  5
75F
  8
0
 62
     1
  0
BLOCK
  8
0
 62
     1
  2
*D45
 70
     1
 10
0.0
 20
0.0
 30
0.0
  3
*D45
  1

  0
LINE
  5
76E
  8
0
 62
     0
 10
26.120674935027392
 20
6.3102930785906661
 30
0.0
 11
27.700800051295399
 21
6.3102930785906661
 31
0.0
  0
LINE
  5
76F
  8
0
 62
     0
 10
26.120675050627408
 20
0.2052928618174798
 30
0.0
 11
27.700800051295399
 21
0.2052928618174794
 31
0.0
  0
LINE
  5
770
  8
0
 62
     0
 10
27.520800051295399
 20
6.1302930785906664
 30
0.0
 11
27.520800051295399
 21
3.437792970204073
 31
0.0
  0
LINE
  5
771
  8
0
 62
     0
 10
27.520800051295399
 20
0.3852928618174794
 30
0.0
 11
27.520800051295399
 21
3.0777929702040718
 31
0.0
  0
SOLID
  5
772
  8
0
 62
     0
 10
27.490800051295398
 20
6.1302930785906664
 30
0.0
 11
27.550800051295401
 21
6.1302930785906664
 31
0.0
 12
27.520800051295399
 22
6.3102930785906661
 32
0.0
 13
27.520800051295399
 23
6.3102930785906661
 33
0.0
  0
SOLID
  5
773
  8
0
 62
     0
 10
27.490800051295398
 20
0.3852928618174794
 30
0.0
 11
27.550800051295401
 21
0.3852928618174794
 31
0.0
 12
27.520800051295399
 22
0.2052928618174794
 32
0.0
 13
27.520800051295399
 23
0.2052928618174794
 33
0.0
  0
INSERT
  5
774
  8
0
 62
     1
  2
*U84
 10
0.0
 20
0.0
 30
0.0
  0
POINT
  5
775
  8
DEFPOINTS
 62
     0
 10
26.058174935027392
 20
6.3102930785906661
 30
0.0
  0
POINT
  5
776
  8
DEFPOINTS
 62
     0
 10
26.058175050627408
 20
0.2052928618174799
 30
0.0
  0
POINT
  5
777
  8
DEFPOINTS
 62
     0
 10
27.520800051295399
 20
0.2052928618174794
 30
0.0
  0
ENDBLK
  5
76D
  8
0
 62
     1
  0
BLOCK
  8
0
 62
     1
  2
*D46
 70
     1
 10
0.0
 20
0.0
 30
0.0
  3
*D46
  1

  0
LINE
  5
77C
  8
0
 62
     0
 10
6.4650299646128699
 20
5.1215586779710254
 30
0.0
 11
6.2850299646128711
 21
5.1215586779710254
 31
0.0
  0
LINE
  5
77D
  8
0
 62
     0
 10
6.2850299646128711
 20
5.1215586779710254
 30
0.0
 11
5.9299058388875681
 21
4.4432909231526043
 31
0.0
  0
INSERT
  5
77E
  8
0
 62
     1
  2
*U85
 10
0.0
 20
0.0
 30
0.0
  0
SOLID
  5
77F
  8
0
 62
     0
 10
5.903328332677356
 20
4.4572062443363256
 30
0.0
 11
5.9564833450977801
 21
4.429375601968883
 31
0.0
 12
5.846413911785235
 22
4.283825885891333
 32
0.0
 13
5.846413911785235
 23
4.283825885891333
 33
0.0
  0
LINE
  5
780
  8
0
 62
     0
 10
5.7115370009677342
 20
4.1981134283633992
 30
0.0
 11
5.891537000967733
 21
4.1981134283634001
 31
0.0
  0
LINE
  5
781
  8
0
 62
     0
 10
5.8015370009677341
 20
4.1081134283633993
 30
0.0
 11
5.8015370009677341
 21
4.288113428363399
 31
0.0
  0
POINT
  5
782
  8
DEFPOINTS
 62
     0
 10
5.846413911785235
 20
4.283825885891333
 30
0.0
  0
POINT
  5
783
  8
DEFPOINTS
 62
     0
 10
5.7566600901502287
 20
4.1124009708354654
 30
0.0
  0
ENDBLK
  5
77B
  8
0
 62
     1
  0
BLOCK
  8
0
 62
     1
  2
*U56
 70
     1
 10
0.0
 20
0.0
 30
0.0
  3
*U56
  1

  0
TEXT
  5
827
  8
0
 62
     7
 10
6.4451258519000003
 20
4.2313268811000002
 30
0.0
 40
0.1
  1
.255
 41
0.75
  7
SLDTEXTSTYLE2
  0
ENDBLK
  5
829
  8
0
 62
     1
  0
BLOCK
  8
0
 62
     1
  2
*U57
 70
     1
 10
0.0
 20
0.0
 30
0.0
  3
*U57
  1

  0
TEXT
  5
82B
  8
0
 62
     7
 10
6.4150963165999988
 20
4.6616464180000001
 30
0.0
 40
0.1
  1
1.297
 41
0.75
  7
SLDTEXTSTYLE2
  0
ENDBLK
  5
82D
  8
0
 62
     1
  0
BLOCK
  8
0
 62
     1
  2
*U58
 70
     1
 10
0.0
 20
0.0
 30
0.0
  3
*U58
  1

  0
TEXT
  5
82F
  8
0
 62
     7
 10
6.1788758440999993
 20
5.1988268815999996
 30
0.0
 40
0.1
  1
3.000
 41
0.75
  7
SLDTEXTSTYLE2
  0
ENDBLK
  5
831
  8
0
 62
     1
  0
BLOCK
  8
0
 62
     1
  2
*U59
 70
     1
 10
0.0
 20
0.0
 30
0.0
  3
*U59
  1

  0
TEXT
  5
833
  8
0
 62
     7
 10
6.651316789
 20
5.1988268815999996
 30
0.0
 40
0.1
  1
5.595
 41
0.75
  7
SLDTEXTSTYLE2
  0
ENDBLK
  5
835
  8
0
 62
     1
  0
BLOCK
  8
0
 62
     1
  2
*U60
 70
     1
 10
0.0
 20
0.0
 30
0.0
  3
*U60
  1

  0
TEXT
  5
837
  8
0
 62
     7
 10
6.0508694943999997
 20
4.0420010941999998
 30
0.0
 40
0.1
  1
.255
 41
0.75
  7
SLDTEXTSTYLE2
  0
ENDBLK
  5
839
  8
0
 62
     1
  0
BLOCK
  8
0
 62
     1
  2
*U61
 70
     1
 10
0.0
 20
0.0
 30
0.0
  3
*U61
  1

  0
TEXT
  5
83B
  8
0
 62
     7
 10
5.4261055203000002
 20
4.0420010941999998
 30
0.0
 40
0.1
  1
2.362
 41
0.75
  7
SLDTEXTSTYLE2
  0
ENDBLK
  5
83D
  8
0
 62
     1
  0
BLOCK
  8
0
 62
     1
  2
*U62
 70
     1
 10
0.0
 20
0.0
 30
0.0
  3
*U62
  1

  0
TEXT
  5
83F
  8
0
 62
     7
 10
4.4433000567000001
 20
4.0420010941999998
 30
0.0
 40
0.1
  1
5.500
 41
0.75
  7
SLDTEXTSTYLE2
  0
ENDBLK
  5
841
  8
0
 62
     1
  0
BLOCK
  8
0
 62
     1
  2
*U63
 70
     1
 10
0.0
 20
0.0
 30
0.0
  3
*U63
  1

  0
TEXT
  5
843
  8
0
 62
     7
 10
4.4063556085000002
 20
3.805780621799999
 30
0.0
 40
0.1
  1
10.225
 41
0.75
  7
SLDTEXTSTYLE2
  0
ENDBLK
  5
845
  8
0
 62
     1
  0
BLOCK
  8
0
 62
     1
  2
*U64
 70
     1
 10
0.0
 20
0.0
 30
0.0
  3
*U64
  1

  0
TEXT
  5
847
  8
0
 62
     7
 10
4.4063556085000002
 20
6.3556526690000004
 30
0.0
 40
0.1
  1
10.735
 41
0.75
  7
SLDTEXTSTYLE2
  0
ENDBLK
  5
849
  8
0
 62
     1
  0
BLOCK
  8
0
 62
     1
  2
*U65
 70
     1
 10
0.0
 20
0.0
 30
0.0
  3
*U65
  1

  0
TEXT
  5
84B
  8
0
 62
     7
 10
2.707724269299999
 20
5.1988268815999996
 30
0.0
 40
0.1
  1
6.105
 41
0.75
  7
SLDTEXTSTYLE2
  0
ENDBLK
  5
84D
  8
0
 62
     1
  0
BLOCK
  8
0
 62
     1
  2
*U66
 70
     1
 10
0.0
 20
0.0
 30
0.0
  3
*U66
  1

  0
TEXT
  5
84F
  8
0
 62
     7
 10
4.0533000645000001
 20
5.1047143602
 30
0.0
 40
0.1
  1
8X
 41
0.75
  7
SLDTEXTSTYLE2
  0
ENDBLK
  5
851
  8
0
 62
     1
  0
BLOCK
  8
0
 62
     1
  2
*U67
 70
     1
 10
0.0
 20
0.0
 30
0.0
  3
*U67
  1

  0
TEXT
  5
853
  8
0
 62
     7
 10
4.245383402199999
 20
5.1031865810000001
 30
0.0
 40
0.1
  1
\U+2205
 41
0.75
  7
SLDTEXTSTYLE2
  0
ENDBLK
  5
855
  8
0
 62
     1
  0
BLOCK
  8
0
 62
     1
  2
*U68
 70
     1
 10
0.0
 20
0.0
 30
0.0
  3
*U68
  1

  0
TEXT
  5
857
  8
0
 62
     7
 10
4.4336959133999994
 20
5.1047143602
 30
0.0
 40
0.1
  1
.136 THRU ALL
 41
0.75
  7
SLDTEXTSTYLE2
  0
ENDBLK
  5
859
  8
0
 62
     1
  0
BLOCK
  8
0
 62
     1
  2
*U69
 70
     1
 10
0.0
 20
0.0
 30
0.0
  3
*U69
  1

  0
TEXT
  5
85B
  8
0
 62
     7
 10
4.3751126585999991
 20
4.9429087891999997
 30
0.0
 40
0.1
  1
\U+2205
 41
0.75
  7
SLDTEXTSTYLE2
  0
ENDBLK
  5
85D
  8
0
 62
     1
  0
BLOCK
  8
0
 62
     1
  2
*U70
 70
     1
 10
0.0
 20
0.0
 30
0.0
  3
*U70
  1

  0
TEXT
  5
85F
  8
0
 62
     7
 10
4.5634251513999988
 20
4.9444365683999996
 30
0.0
 40
0.1
  1
.225 X 100°
 41
0.75
  7
SLDTEXTSTYLE2
  0
ENDBLK
  5
861
  8
0
 62
     1
  0
BLOCK
  8
0
 62
     1
  2
*U71
 70
     1
 10
0.0
 20
0.0
 30
0.0
  3
*U71
  1

  0
TEXT
  5
866
  8
0
 62
     0
 10
27.776728283220262
 20
-0.6622071780192239
 30
0.0
 40
0.1
  1
1.02
 41
0.75
  7
SLDTEXTSTYLE2
  0
ENDBLK
  5
868
  8
0
 62
     1
  0
BLOCK
  8
0
 62
     1
  2
*U72
 70
     1
 10
0.0
 20
0.0
 30
0.0
  3
*U72
  1

  0
TEXT
  5
86A
  8
0
 62
     0
 10
28.715360216490311
 20
1.0590710488052171
 30
0.0
 40
0.1
  1
5.19
 41
0.75
  7
SLDTEXTSTYLE2
  0
ENDBLK
  5
86C
  8
0
 62
     1
  0
BLOCK
  8
0
 62
     1
  2
*U73
 70
     1
 10
0.0
 20
0.0
 30
0.0
  3
*U73
  1

  0
TEXT
  5
86E
  8
0
 62
     0
 10
27.714228283220262
 20
3.2077930016040761
 30
0.0
 40
0.1
  1
12.000
 41
0.75
  7
SLDTEXTSTYLE2
  0
ENDBLK
  5
870
  8
0
 62
     1
  0
BLOCK
  8
0
 62
     1
  2
*U74
 70
     1
 10
0.0
 20
0.0
 30
0.0
  3
*U74
  1

  0
TEXT
  5
872
  8
0
 62
     0
 10
29.61024214936036
 20
3.2077930016040761
 30
0.0
 40
0.1
  1
22.38
 41
0.75
  7
SLDTEXTSTYLE2
  0
ENDBLK
  5
874
  8
0
 62
     1
  0
BLOCK
  8
0
 62
     1
  2
*U75
 70
     1
 10
0.0
 20
0.0
 30
0.0
  3
*U75
  1

  0
TEXT
  5
876
  8
0
 62
     0
 10
27.375925115265819
 20
-1.419510359899262
 30
0.0
 40
0.1
  1
1.02
 41
0.75
  7
SLDTEXTSTYLE2
  0
ENDBLK
  5
878
  8
0
 62
     1
  0
BLOCK
  8
0
 62
     1
  2
*U76
 70
     1
 10
0.0
 20
0.0
 30
0.0
  3
*U76
  1

  0
TEXT
  5
87A
  8
0
 62
     0
 10
24.746896850130391
 20
-1.419510359899262
 30
0.0
 40
0.1
  1
9.45
 41
0.75
  7
SLDTEXTSTYLE2
  0
ENDBLK
  5
87C
  8
0
 62
     1
  0
BLOCK
  8
0
 62
     1
  2
*U77
 70
     1
 10
0.0
 20
0.0
 30
0.0
  3
*U77
  1

  0
TEXT
  5
87E
  8
0
 62
     0
 10
20.75942481570349
 20
-1.419510359899262
 30
0.0
 40
0.1
  1
22.000
 41
0.75
  7
SLDTEXTSTYLE2
  0
ENDBLK
  5
880
  8
0
 62
     1
  0
BLOCK
  8
0
 62
     1
  2
*U78
 70
     1
 10
0.0
 20
0.0
 30
0.0
  3
*U78
  1

  0
TEXT
  5
882
  8
0
 62
     0
 10
20.82192481570349
 20
-2.364392292769312
 30
0.0
 40
0.1
  1
40.9
 41
0.75
  7
SLDTEXTSTYLE2
  0
ENDBLK
  5
884
  8
0
 62
     1
  0
BLOCK
  8
0
 62
     1
  2
*U79
 70
     1
 10
0.0
 20
0.0
 30
0.0
  3
*U79
  1

  0
TEXT
  5
886
  8
0
 62
     0
 10
20.77817481570349
 20
7.8350963631074091
 30
0.0
 40
0.1
  1
42.94
 41
0.75
  7
SLDTEXTSTYLE2
  0
ENDBLK
  5
888
  8
0
 62
     1
  0
BLOCK
  8
0
 62
     1
  2
*U80
 70
     1
 10
0.0
 20
0.0
 30
0.0
  3
*U80
  1

  0
TEXT
  5
88A
  8
0
 62
     0
 10
13.83587134818673
 20
3.2077930016040761
 30
0.0
 40
0.1
  1
24.42
 41
0.75
  7
SLDTEXTSTYLE2
  0
ENDBLK
  5
88C
  8
0
 62
     1
  0
BLOCK
  8
0
 62
     1
  2
*U81
 70
     1
 10
0.0
 20
0.0
 30
0.0
  3
*U81
  1

  0
TEXT
  5
88E
  8
0
 62
     0
 10
20.678688822320421
 20
2.591787785724438
 30
0.0
 40
0.1
  1
8X \U+2205.9 THRU ALL
 41
0.75
  7
SLDTEXTSTYLE2
  0
TEXT
  5
88F
  8
0
 62
     0
 10
20.671445064107552
 20
2.4251211190577719
 30
0.0
 40
0.1
  1
w
 41
0.75
  7
SLDTEXTSTYLE2
  0
TEXT
  5
890
  8
0
 62
     0
 10
20.839086325605571
 20
2.4251211190577719
 30
0.0
 40
0.1
  1
\U+2205 .225 X 100°
 41
0.75
  7
SLDTEXTSTYLE2
  0
ENDBLK
  5
892
  8
0
 62
     1
  0
BLOCK
  8
0
 62
     1
  2
*U82
 70
     1
 10
0.0
 20
0.0
 30
0.0
  3
*U82
  1

  0
TEXT
  5
894
  8
0
 62
     0
 10
26.828629773356671
 20
3.1677930016040801
 30
0.0
 40
0.18
  1
3.0000
  0
ENDBLK
  5
896
  8
0
 62
     1
  0
BLOCK
  8
0
 62
     1
  2
*U83
 70
     1
 10
0.0
 20
0.0
 30
0.0
  3
*U83
  1

  0
TEXT
  5
898
  8
0
 62
     0
 10
20.448174815903489
 20
3.1812351022084351
 30
0.0
 40
0.18
  1
10.7350
  0
ENDBLK
  5
89A
  8
0
 62
     1
  0
BLOCK
  8
0
 62
     1
  2
*U84
 70
     1
 10
0.0
 20
0.0
 30
0.0
  3
*U84
  1

  0
TEXT
  5
89C
  8
0
 62
     0
 10
27.130800051295399
 20
3.167792970204077
 30
0.0
 40
0.18
  1
6.1050
  0
ENDBLK
  5
89E
  8
0
 62
     1
  0
BLOCK
  8
0
 62
     1
  2
*U85
 70
     1
 10
0.0
 20
0.0
 30
0.0
  3
*U85
  1

  0
TEXT
  5
8A0
  8
0
 62
     0
 10
6.5550299646128707
 20
5.0315586779710229
 30
0.0
 40
0.18
  1
\U+22050.1935
  0
ENDBLK
  5
8A2
  8
0
 62
     1
  0
ENDSEC
  0
SECTION
  2
ENTITIES
  0
CIRCLE
  5
789
  8
0
 10
2.8520983802568081
 20
6.0555455300569507
 30
0.0
 40
0.09675
  0
CIRCLE
  5
78F
  8
0
 10
8.3520986321245552
 20
6.0555455300569507
 30
0.0
 40
0.09675
  0
CIRCLE
  5
795
  8
0
 10
10.714542449510621
 20
4.7581017614416448
 30
0.0
 40
0.09675
  0
CIRCLE
  5
79B
  8
0
 10
10.714542449510621
 20
1.7581016240592451
 30
0.0
 40
0.09675
  0
CIRCLE
  5
7A1
  8
0
 10
8.3520986321245552
 20
0.4606578554439307
 30
0.0
 40
0.09675
  0
CIRCLE
  5
7A7
  8
0
 10
2.8520983802568081
 20
0.4606578554439307
 30
0.0
 40
0.09675
  0
CIRCLE
  5
7AD
  8
0
 10
0.489654562870757
 20
1.7581016240592451
 30
0.0
 40
0.09675
  0
CIRCLE
  5
7B3
  8
0
 10
0.489654562870757
 20
4.7581017614416448
 30
0.0
 40
0.09675
  0
POLYLINE
  5
7D4
  8
0
 62
     7
 66
     1
 10
0.0
 20
0.0
 30
0.0
 70
     1
  0
VERTEX
  5
8A3
  8
0
 62
     7
 10
0.2583485061906883
 20
6.0706016927504454
 30
0.0
  0
VERTEX
  5
8A4
  8
0
 62
     7
 10
0.2583485061906883
 20
0.4456016927504467
 30
0.0
 42
0.4142135623730951
  0
VERTEX
  5
8A5
  8
0
 62
     7
 10
0.4770985061906883
 20
0.2268516927504449
 30
0.0
  0
VERTEX
  5
8A6
  8
0
 62
     7
 10
10.727098506190689
 20
0.2268516927504467
 30
0.0
 42
0.4142135623730951
  0
VERTEX
  5
8A7
  8
0
 62
     7
 10
10.945848506190689
 20
0.4456016927504467
 30
0.0
  0
VERTEX
  5
8A8
  8
0
 62
     7
 10
10.945848506190689
 20
6.0706016927504454
 30
0.0
 42
0.4142135623730951
  0
VERTEX
  5
8A9
  8
0
 62
     7
 10
10.727098506190689
 20
6.2893516927504454
 30
0.0
  0
VERTEX
  5
8AA
  8
0
 62
     7
 10
0.4770985061906883
 20
6.2893516927504454
 30
0.0
 42
0.4142135623730951
  0
SEQEND
  5
8AB
  8
0
 62
     7
  0
ENDSEC
  0
EOF
