  0
SECTION
  2
HEADER
  9
$ACADVER
  1
AC1009
  9
$INSBASE
 10
0.0
 20
0.0
 30
0.0
  9
$EXTMIN
 10
0.3681719677786361
 20
0.4435567745862154
 30
0.0
  9
$EXTMAX
 10
43.646252661092731
 20
13.15291201107763
 30
0.0
  9
$LIMMIN
 10
0.0
 20
0.0
  9
$LIMMAX
 10
12.0
 20
9.0
  9
$ORTHOMODE
 70
     0
  9
$REGENMODE
 70
     1
  9
$FILLMODE
 70
     1
  9
$QTEXTMODE
 70
     0
  9
$MIRRTEXT
 70
     0
  9
$DRAGMODE
 70
     2
  9
$LTSCALE
 40
1.0
  9
$OSMODE
 70
  2087
  9
$ATTMODE
 70
     1
  9
$TEXTSIZE
 40
0.2
  9
$TRACEWID
 40
0.05
  9
$TEXTSTYLE
  7
STANDARD
  9
$CLAYER
  8
0
  9
$CELTYPE
  6
BYLAYER
  9
$CECOLOR
 62
   256
  9
$DIMSCALE
 40
1.0
  9
$DIMASZ
 40
0.18
  9
$DIMEXO
 40
0.0625
  9
$DIMDLI
 40
0.38
  9
$DIMRND
 40
0.0
  9
$DIMDLE
 40
0.0
  9
$DIMEXE
 40
0.18
  9
$DIMTP
 40
0.0
  9
$DIMTM
 40
0.0
  9
$DIMTXT
 40
0.18
  9
$DIMCEN
 40
0.09
  9
$DIMTSZ
 40
0.0
  9
$DIMTOL
 70
     0
  9
$DIMLIM
 70
     0
  9
$DIMTIH
 70
     1
  9
$DIMTOH
 70
     1
  9
$DIMSE1
 70
     0
  9
$DIMSE2
 70
     0
  9
$DIMTAD
 70
     0
  9
$DIMZIN
 70
     0
  9
$DIMBLK
  1

  9
$DIMASO
 70
     1
  9
$DIMSHO
 70
     1
  9
$DIMPOST
  1

  9
$DIMAPOST
  1

  9
$DIMALT
 70
     0
  9
$DIMALTD
 70
     2
  9
$DIMALTF
 40
25.399999999999999
  9
$DIMLFAC
 40
1.0
  9
$DIMTOFL
 70
     0
  9
$DIMTVP
 40
0.0
  9
$DIMTIX
 70
     0
  9
$DIMSOXD
 70
     0
  9
$DIMSAH
 70
     0
  9
$DIMBLK1
  1

  9
$DIMBLK2
  1

  9
$DIMSTYLE
  2
STANDARD
  9
$DIMCLRD
 70
     0
  9
$DIMCLRE
 70
     0
  9
$DIMCLRT
 70
     0
  9
$DIMTFAC
 40
1.0
  9
$DIMGAP
 40
0.09
  9
$LUNITS
 70
     2
  9
$LUPREC
 70
     4
  9
$SKETCHINC
 40
0.1
  9
$FILLETRAD
 40
0.0
  9
$AUNITS
 70
     0
  9
$AUPREC
 70
     0
  9
$MENU
  1
.
  9
$ELEVATION
 40
0.0
  9
$PELEVATION
 40
0.0
  9
$THICKNESS
 40
0.0
  9
$LIMCHECK
 70
     0
  9
$BLIPMODE
 70
     0
  9
$CHAMFERA
 40
0.0
  9
$CHAMFERB
 40
0.0
  9
$SKPOLY
 70
     0
  9
$TDCREATE
 40
2459060.477481551
  9
$TDUPDATE
 40
2459062.5172335422
  9
$TDINDWG
 40
0.0090275926
  9
$TDUSRTIMER
 40
0.0090275694
  9
$USRTIMER
 70
     1
  9
$ANGBASE
 50
0.0
  9
$ANGDIR
 70
     0
  9
$PDMODE
 70
     0
  9
$PDSIZE
 40
0.0
  9
$PLINEWID
 40
0.0
  9
$COORDS
 70
     1
  9
$SPLFRAME
 70
     0
  9
$SPLINETYPE
 70
     6
  9
$SPLINESEGS
 70
     8
  9
$ATTDIA
 70
     1
  9
$ATTREQ
 70
     1
  9
$HANDLING
 70
     1
  9
$HANDSEED
  5
65B
  9
$SURFTAB1
 70
     6
  9
$SURFTAB2
 70
     6
  9
$SURFTYPE
 70
     6
  9
$SURFU
 70
     6
  9
$SURFV
 70
     6
  9
$UCSNAME
  2

  9
$UCSORG
 10
0.0
 20
0.0
 30
0.0
  9
$UCSXDIR
 10
1.0
 20
0.0
 30
0.0
  9
$UCSYDIR
 10
0.0
 20
1.0
 30
0.0
  9
$PUCSNAME
  2

  9
$PUCSORG
 10
0.0
 20
0.0
 30
0.0
  9
$PUCSXDIR
 10
1.0
 20
0.0
 30
0.0
  9
$PUCSYDIR
 10
0.0
 20
1.0
 30
0.0
  9
$USERI1
 70
     0
  9
$USERI2
 70
     0
  9
$USERI3
 70
     0
  9
$USERI4
 70
     0
  9
$USERI5
 70
     0
  9
$USERR1
 40
0.0
  9
$USERR2
 40
0.0
  9
$USERR3
 40
0.0
  9
$USERR4
 40
0.0
  9
$USERR5
 40
0.0
  9
$WORLDVIEW
 70
     1
  9
$SHADEDGE
 70
     3
  9
$SHADEDIF
 70
    70
  9
$TILEMODE
 70
     1
  9
$MAXACTVP
 70
    64
  9
$PLIMCHECK
 70
     0
  9
$PEXTMIN
 10
0.0
 20
0.0
 30
0.0
  9
$PEXTMAX
 10
0.0
 20
0.0
 30
0.0
  9
$PLIMMIN
 10
0.0
 20
0.0
  9
$PLIMMAX
 10
12.0
 20
9.0
  9
$UNITMODE
 70
     0
  9
$VISRETAIN
 70
     1
  9
$PLINEGEN
 70
     0
  9
$PSLTSCALE
 70
     1
  0
ENDSEC
  0
SECTION
  2
TABLES
  0
TABLE
  2
VPORT
 70
     1
  0
VPORT
  2
*ACTIVE
 70
     0
 10
0.0
 20
0.0
 11
1.0
 21
1.0
 12
11.55988066295069
 22
0.8373552503716226
 13
0.0
 23
0.0
 14
0.5
 24
0.5
 15
0.5
 25
0.5
 16
0.0
 26
0.0
 36
1.0
 17
0.0
 27
0.0
 37
0.0
 40
19.842177009034842
 41
2.2927120669056151
 42
50.0
 43
0.0
 44
0.0
 50
0.0
 51
0.0
 71
     0
 72
  1000
 73
     1
 74
     3
 75
     0
 76
     1
 77
     0
 78
     0
  0
ENDTAB
  0
TABLE
  2
LTYPE
 70
     2
  0
LTYPE
  2
CONTINUOUS
 70
     0
  3
Solid line
 72
    65
 73
     0
 40
0.0
  0
ENDTAB
  0
TABLE
  2
LAYER
 70
     2
  0
LAYER
  2
0
 70
     0
 62
     7
  6
CONTINUOUS
  0
LAYER
  2
DEFPOINTS
 70
     0
 62
     7
  6
CONTINUOUS
  0
ENDTAB
  0
TABLE
  2
STYLE
 70
     3
  0
STYLE
  2
STANDARD
 70
     0
 40
0.0
 41
1.0
 50
0.0
 71
     0
 42
0.2
  3
txt
  4

  0
STYLE
  2
ANNOTATIVE
 70
     0
 40
0.0
 41
1.0
 50
0.0
 71
     0
 42
0.2
  3
txt
  4

  0
STYLE
  2
SLDTEXTSTYLE2
 70
     0
 40
0.0
 41
0.75
 50
0.0
 71
     0
 42
0.1
  3
TXT
  4

  0
ENDTAB
  0
TABLE
  2
VIEW
 70
     0
  0
ENDTAB
  0
TABLE
  2
UCS
 70
     0
  0
ENDTAB
  0
TABLE
  2
APPID
 70
     9
  0
APPID
  2
ACAD
 70
     0
  0
APPID
  2
ACADANNOTATIVE
 70
     0
  0
APPID
  2
ACADANNOPO
 70
     0
  0
APPID
  2
ACAD_DSTYLE_DIMJAG
 70
     0
  0
APPID
  2
ACAD_DSTYLE_DIMTALN
 70
     0
  0
APPID
  2
ACAD_MLEADERVER
 70
     0
  0
APPID
  2
ACAD_NAV_VCDISPLAY
 70
     0
  0
APPID
  2
ACAD_EXEMPT_FROM_CAD_STANDARDS
 70
     0
  0
APPID
  2
ACAD_DSTYLE_DIMRADIAL_EXTENSION
 70
     0
  0
ENDTAB
  0
TABLE
  2
DIMSTYLE
 70
     8
  0
DIMSTYLE
  2
STANDARD
 70
     0
  3

  4

  5

  6

  7

 40
1.0
 41
0.18
 42
0.0625
 43
0.38
 44
0.18
 45
0.0
 46
0.0
 47
0.0
 48
0.0
140
0.18
141
0.09
142
0.0
143
25.399999999999999
144
1.0
145
0.0
146
1.0
147
0.09
 71
     0
 72
     0
 73
     1
 74
     1
 75
     0
 76
     0
 77
     0
 78
     0
170
     0
171
     2
172
     0
173
     0
174
     0
175
     0
176
     0
177
     0
178
     0
  0
DIMSTYLE
  2
ANNOTATIVE
 70
     0
  3

  4

  5

  6

  7

 40
0.0
 41
0.18
 42
0.0625
 43
0.38
 44
0.18
 45
0.0
 46
0.0
 47
0.0
 48
0.0
140
0.18
141
0.09
142
0.0
143
25.399999999999999
144
1.0
145
0.0
146
1.0
147
0.09
 71
     0
 72
     0
 73
     1
 74
     1
 75
     0
 76
     0
 77
     0
 78
     0
170
     0
171
     2
172
     0
173
     0
174
     0
175
     0
176
     0
177
     0
178
     0
  0
DIMSTYLE
  2
SLDDIMSTYLE0
 70
     0
  3

  4

  5

  6

  7

 40
1.0
 41
0.078
 42
0.0625
 43
0.38
 44
0.0
 45
0.000000001
 46
0.0
 47
0.0
 48
0.0
140
0.1
141
0.09
142
0.0
143
25.399999999999999
144
4.0
145
0.0
146
1.0
147
0.025
 71
     0
 72
     0
 73
     1
 74
     1
 75
     0
 76
     0
 77
     0
 78
    12
170
     0
171
     2
172
     1
173
     1
174
     0
175
     0
176
     0
177
     0
178
     0
  0
DIMSTYLE
  2
SLDDIMSTYLE1
 70
     0
  3

  4

  5

  6

  7

 40
1.0
 41
0.078
 42
0.0625
 43
0.38
 44
0.0
 45
0.000000001
 46
0.0
 47
0.0
 48
0.0
140
0.1
141
0.09
142
0.0
143
25.399999999999999
144
4.0
145
0.0
146
1.0
147
0.025
 71
     0
 72
     0
 73
     1
 74
     1
 75
     0
 76
     0
 77
     0
 78
    12
170
     0
171
     2
172
     0
173
     1
174
     0
175
     0
176
     0
177
     0
178
     0
  0
DIMSTYLE
  2
SLDDIMSTYLE2
 70
     0
  3

  4

  5

  6

  7

 40
1.0
 41
0.078
 42
0.0625
 43
0.38
 44
0.0
 45
0.000000001
 46
0.0
 47
0.0
 48
0.0
140
0.1
141
0.09
142
0.0
143
25.399999999999999
144
4.0
145
0.0
146
1.0
147
0.025
 71
     0
 72
     0
 73
     1
 74
     1
 75
     0
 76
     0
 77
     0
 78
     4
170
     0
171
     2
172
     0
173
     1
174
     0
175
     0
176
     0
177
     0
178
     0
  0
DIMSTYLE
  2
SLDDIMSTYLE3
 70
     0
  3

  4

  5

  6

  7

 40
1.0
 41
0.078
 42
0.0625
 43
0.38
 44
0.0
 45
0.000000001
 46
0.0
 47
0.0
 48
0.0
140
0.1
141
0.0
142
0.0
143
25.399999999999999
144
4.0
145
0.0
146
1.0
147
0.025
 71
     0
 72
     0
 73
     1
 74
     1
 75
     0
 76
     0
 77
     0
 78
    12
170
     0
171
     2
172
     0
173
     1
174
     0
175
     0
176
     0
177
     0
178
     0
  0
DIMSTYLE
  2
SLDDIMSTYLE4
 70
     0
  3

  4

  5

  6

  7

 40
1.0
 41
0.078
 42
0.0625
 43
0.38
 44
0.0
 45
0.000000001
 46
0.0
 47
0.0
 48
0.0
140
0.1
141
0.0
142
0.0
143
25.399999999999999
144
4.0
145
0.0
146
1.0
147
0.025
 71
     0
 72
     0
 73
     1
 74
     1
 75
     0
 76
     0
 77
     0
 78
    12
170
     0
171
     2
172
     0
173
     1
174
     0
175
     0
176
     0
177
     0
178
     0
  0
ENDTAB
  0
ENDSEC
  0
SECTION
  2
BLOCKS
  0
BLOCK
  8
0
  2
$MODEL_SPACE
 70
     0
 10
0.0
 20
0.0
 30
0.0
  3
$MODEL_SPACE
  1

  0
ENDBLK
  5
522
  8
0
  0
BLOCK
 67
     1
  8
0
  2
$PAPER_SPACE
 70
     0
 10
0.0
 20
0.0
 30
0.0
  3
$PAPER_SPACE
  1

  0
ENDBLK
  5
51E
 67
     1
  8
0
  0
BLOCK
  8
0
  2
_D
 70
     0
 10
0.0
 20
0.0
 30
0.0
  3
_D
  1

  0
SOLID
  5
1EB
  8
0
  6
CONTINUOUS
 62
     7
 10
7.860810085799999
 20
4.0462776835999987
 30
0.0
 11
7.9388100858000001
 21
4.0332776835999979
 31
0.0
 12
7.9388100858000001
 22
4.0592776836000004
 32
0.0
 13
7.9388100858000001
 23
4.0592776836000004
 33
0.0
  0
SOLID
  5
1EC
  8
0
  6
CONTINUOUS
 62
     7
 10
7.7889210129999977
 20
4.0462776835999987
 30
0.0
 11
7.7109210129999983
 21
4.0592776836000004
 31
0.0
 12
7.7109210129999983
 22
4.0332776835999979
 32
0.0
 13
7.7109210129999983
 23
4.0332776835999979
 33
0.0
  0
LINE
  5
1ED
  8
0
  6
CONTINUOUS
 62
     7
 10
7.860810085799999
 20
4.641228470999998
 30
0.0
 11
7.860810085799999
 21
3.9962776835999989
 31
0.0
  0
LINE
  5
1EE
  8
0
  6
CONTINUOUS
 62
     7
 10
7.7889210129999977
 20
4.8162284709999987
 30
0.0
 11
7.7889210129999977
 21
3.9962776835999989
 31
0.0
  0
LINE
  5
1EF
  8
0
  6
CONTINUOUS
 62
     7
 10
7.860810085799999
 20
4.0462776835999987
 30
0.0
 11
7.9602545157
 21
4.0462776835999987
 31
0.0
  0
LINE
  5
1F0
  8
0
  6
CONTINUOUS
 62
     7
 10
7.7889210129999977
 20
4.0462776835999987
 30
0.0
 11
7.6639210129999977
 21
4.0462776835999987
 31
0.0
  0
INSERT
  5
1F1
  8
0
  2
*U3
 10
0.0
 20
0.0
 30
0.0
  0
ENDBLK
  5
1F2
  8
0
  0
BLOCK
  8
0
  2
*U3
 70
     1
 10
0.0
 20
0.0
 30
0.0
  3
*U3
  1

  0
TEXT
  5
43A
  8
0
 62
     7
 10
7.9602545157
 20
3.9958094569999991
 30
0.0
 40
0.1
  1
.288
 41
0.75
  7
SLDTEXTSTYLE2
  0
ENDBLK
  5
43C
  8
0
  0
BLOCK
  8
0
  2
_D_1
 70
     0
 10
0.0
 20
0.0
 30
0.0
  3
_D_1
  1

  0
SOLID
  5
1F5
  8
0
  6
CONTINUOUS
 62
     7
 10
7.7889210129999977
 20
4.0462776835999987
 30
0.0
 11
7.7109210129999983
 21
4.0592776836000004
 31
0.0
 12
7.7109210129999983
 22
4.0332776835999979
 32
0.0
 13
7.7109210129999983
 23
4.0332776835999979
 33
0.0
  0
SOLID
  5
1F6
  8
0
  6
CONTINUOUS
 62
     7
 10
6.5533100857999989
 20
4.0462776835999987
 30
0.0
 11
6.6313100858
 21
4.0332776835999979
 31
0.0
 12
6.6313100858
 22
4.0592776836000004
 32
0.0
 13
6.6313100858
 23
4.0592776836000004
 33
0.0
  0
LINE
  5
1F7
  8
0
  6
CONTINUOUS
 62
     7
 10
7.7889210129999977
 20
4.8162284709999987
 30
0.0
 11
7.7889210129999977
 21
3.9962776835999989
 31
0.0
  0
LINE
  5
1F8
  8
0
  6
CONTINUOUS
 62
     7
 10
6.5533100857999989
 20
4.4768675437000001
 30
0.0
 11
6.5533100857999989
 21
3.9962776835999989
 31
0.0
  0
LINE
  5
1F9
  8
0
  6
CONTINUOUS
 62
     7
 10
7.7889210129999977
 20
4.0462776835999987
 30
0.0
 11
7.3373655572000001
 21
4.0462776835999987
 31
0.0
  0
LINE
  5
1FA
  8
0
  6
CONTINUOUS
 62
     7
 10
6.5533100857999989
 20
4.0462776835999987
 30
0.0
 11
7.0048655416000001
 21
4.0462776835999987
 31
0.0
  0
INSERT
  5
1FB
  8
0
  2
*U5
 10
0.0
 20
0.0
 30
0.0
  0
ENDBLK
  5
1FC
  8
0
  0
BLOCK
  8
0
  2
*U5
 70
     1
 10
0.0
 20
0.0
 30
0.0
  3
*U5
  1

  0
TEXT
  5
43E
  8
0
 62
     7
 10
7.0048655416000001
 20
3.9958094569999991
 30
0.0
 40
0.1
  1
4.942
 41
0.75
  7
SLDTEXTSTYLE2
  0
ENDBLK
  5
440
  8
0
  0
BLOCK
  8
0
  2
_D_2
 70
     0
 10
0.0
 20
0.0
 30
0.0
  3
_D_2
  1

  0
SOLID
  5
1FF
  8
0
  6
CONTINUOUS
 62
     7
 10
6.5533100857999989
 20
4.0462776835999987
 30
0.0
 11
6.4753100858000003
 21
4.0592776836000004
 31
0.0
 12
6.4753100858000003
 22
4.0332776835999979
 32
0.0
 13
6.4753100858000003
 23
4.0332776835999979
 33
0.0
  0
SOLID
  5
200
  8
0
  6
CONTINUOUS
 62
     7
 10
4.928310085799998
 20
4.0462776835999987
 30
0.0
 11
5.0063100858
 21
4.0332776835999979
 31
0.0
 12
5.0063100858
 22
4.0592776836000004
 32
0.0
 13
5.0063100858
 23
4.0592776836000004
 33
0.0
  0
LINE
  5
201
  8
0
  6
CONTINUOUS
 62
     7
 10
6.5533100857999989
 20
4.4768675437000001
 30
0.0
 11
6.5533100857999989
 21
3.9962776835999989
 31
0.0
  0
LINE
  5
202
  8
0
  6
CONTINUOUS
 62
     7
 10
4.928310085799998
 20
4.4768675437000001
 30
0.0
 11
4.928310085799998
 21
3.9962776835999989
 31
0.0
  0
LINE
  5
203
  8
0
  6
CONTINUOUS
 62
     7
 10
6.5533100857999989
 20
4.0462776835999987
 30
0.0
 11
5.9070600936000002
 21
4.0462776835999987
 31
0.0
  0
LINE
  5
204
  8
0
  6
CONTINUOUS
 62
     7
 10
4.928310085799998
 20
4.0462776835999987
 30
0.0
 11
5.5745600779999993
 21
4.0462776835999987
 31
0.0
  0
INSERT
  5
205
  8
0
  2
*U7
 10
0.0
 20
0.0
 30
0.0
  0
ENDBLK
  5
206
  8
0
  0
BLOCK
  8
0
  2
*U7
 70
     1
 10
0.0
 20
0.0
 30
0.0
  3
*U7
  1

  0
TEXT
  5
442
  8
0
 62
     7
 10
5.5745600779999993
 20
3.9958094569999991
 30
0.0
 40
0.1
  1
6.500
 41
0.75
  7
SLDTEXTSTYLE2
  0
ENDBLK
  5
444
  8
0
  0
BLOCK
  8
0
  2
_D_3
 70
     0
 10
0.0
 20
0.0
 30
0.0
  3
_D_3
  1

  0
SOLID
  5
209
  8
0
  6
CONTINUOUS
 62
     7
 10
7.7889210129999977
 20
3.8100572111000002
 30
0.0
 11
7.7109210129999983
 21
3.8230572111000001
 31
0.0
 12
7.7109210129999983
 22
3.7970572110999989
 32
0.0
 13
7.7109210129999983
 23
3.7970572110999989
 33
0.0
  0
SOLID
  5
20A
  8
0
  6
CONTINUOUS
 62
     7
 10
3.6926991585
 20
3.8100572111000002
 30
0.0
 11
3.7706991584999989
 21
3.7970572110999989
 31
0.0
 12
3.7706991584999989
 22
3.8230572111000001
 32
0.0
 13
3.7706991584999989
 23
3.8230572111000001
 33
0.0
  0
LINE
  5
20B
  8
0
  6
CONTINUOUS
 62
     7
 10
7.7889210129999977
 20
4.8162284709999987
 30
0.0
 11
7.7889210129999977
 21
3.760057211099999
 31
0.0
  0
LINE
  5
20C
  8
0
  6
CONTINUOUS
 62
     7
 10
3.6926991585
 20
4.8162284709999987
 30
0.0
 11
3.6926991585
 21
3.760057211099999
 31
0.0
  0
LINE
  5
20D
  8
0
  6
CONTINUOUS
 62
     7
 10
7.7889210129999977
 20
3.8100572111000002
 30
0.0
 11
5.9440045417999992
 21
3.8100572111000002
 31
0.0
  0
LINE
  5
20E
  8
0
  6
CONTINUOUS
 62
     7
 10
3.6926991585
 20
3.8100572111000002
 30
0.0
 11
5.5376156298000003
 21
3.8100572111000002
 31
0.0
  0
INSERT
  5
20F
  8
0
  2
*U9
 10
0.0
 20
0.0
 30
0.0
  0
ENDBLK
  5
210
  8
0
  0
BLOCK
  8
0
  2
*U9
 70
     1
 10
0.0
 20
0.0
 30
0.0
  3
*U9
  1

  0
TEXT
  5
446
  8
0
 62
     7
 10
5.5376156298000003
 20
3.7595889845999988
 30
0.0
 40
0.1
  1
16.385
 41
0.75
  7
SLDTEXTSTYLE2
  0
ENDBLK
  5
448
  8
0
  0
BLOCK
  8
0
  2
_D_4
 70
     0
 10
0.0
 20
0.0
 30
0.0
  3
_D_4
  1

  0
SOLID
  5
213
  8
0
  6
CONTINUOUS
 62
     7
 10
8.2545108731999992
 20
4.4399784709999981
 30
0.0
 11
8.2415108732000011
 21
4.3619784709999987
 31
0.0
 12
8.2675108732000009
 22
4.3619784709999987
 32
0.0
 13
8.2675108732000009
 23
4.3619784709999987
 33
0.0
  0
SOLID
  5
214
  8
0
  6
CONTINUOUS
 62
     7
 10
8.2545108731999992
 20
4.5118675437000002
 30
0.0
 11
8.2675108732000009
 21
4.5898675436999987
 31
0.0
 12
8.2415108732000011
 22
4.5898675436999987
 32
0.0
 13
8.2415108732000011
 23
4.5898675436999987
 33
0.0
  0
LINE
  5
215
  8
0
  6
CONTINUOUS
 62
     7
 10
7.659560085799999
 20
4.4399784709999981
 30
0.0
 11
8.3045108731999981
 21
4.4399784709999981
 31
0.0
  0
LINE
  5
216
  8
0
  6
CONTINUOUS
 62
     7
 10
6.588310085799999
 20
4.5118675437000002
 30
0.0
 11
8.3045108731999981
 21
4.5118675437000002
 31
0.0
  0
LINE
  5
217
  8
0
  6
CONTINUOUS
 62
     7
 10
8.3545108732000006
 20
4.2356034704000001
 30
0.0
 11
8.2545108731999992
 21
4.2356034704000001
 31
0.0
  0
LINE
  5
218
  8
0
  6
CONTINUOUS
 62
     7
 10
8.2545108731999992
 20
4.2356034704000001
 30
0.0
 11
8.2545108731999992
 21
4.4399784709999981
 31
0.0
  0
LINE
  5
219
  8
0
  6
CONTINUOUS
 62
     7
 10
8.2545108731999992
 20
4.5118675437000002
 30
0.0
 11
8.2545108731999992
 21
4.6368675437000002
 31
0.0
  0
INSERT
  5
21A
  8
0
  2
*U11
 10
0.0
 20
0.0
 30
0.0
  0
ENDBLK
  5
21B
  8
0
  0
BLOCK
  8
0
  2
*U11
 70
     1
 10
0.0
 20
0.0
 30
0.0
  3
*U11
  1

  0
TEXT
  5
44A
  8
0
 62
     7
 10
8.3545108732000006
 20
4.1851352437999987
 30
0.0
 40
0.1
  1
.288
 41
0.75
  7
SLDTEXTSTYLE2
  0
ENDBLK
  5
44C
  8
0
  0
BLOCK
  8
0
  2
_D_5
 70
     0
 10
0.0
 20
0.0
 30
0.0
  3
_D_5
  1

  0
SOLID
  5
21E
  8
0
  6
CONTINUOUS
 62
     7
 10
8.4907313455999986
 20
4.5118675437000002
 30
0.0
 11
8.4777313455999987
 21
4.433867543699999
 31
0.0
 12
8.5037313455999985
 22
4.433867543699999
 32
0.0
 13
8.5037313455999985
 23
4.433867543699999
 33
0.0
  0
SOLID
  5
21F
  8
0
  6
CONTINUOUS
 62
     7
 10
8.4907313455999986
 20
4.8512284709999989
 30
0.0
 11
8.5037313455999985
 21
4.9292284710000001
 31
0.0
 12
8.4777313455999987
 22
4.9292284710000001
 32
0.0
 13
8.4777313455999987
 23
4.9292284710000001
 33
0.0
  0
LINE
  5
220
  8
0
  6
CONTINUOUS
 62
     7
 10
6.588310085799999
 20
4.5118675437000002
 30
0.0
 11
8.5407313455999976
 21
4.5118675437000002
 31
0.0
  0
LINE
  5
221
  8
0
  6
CONTINUOUS
 62
     7
 10
7.8239210129999988
 20
4.8512284709999989
 30
0.0
 11
8.5407313455999976
 21
4.8512284709999989
 31
0.0
  0
LINE
  5
222
  8
0
  6
CONTINUOUS
 62
     7
 10
8.4907313455999986
 20
4.5118675437000002
 30
0.0
 11
8.4907313455999986
 21
4.3868675437000002
 31
0.0
  0
LINE
  5
223
  8
0
  6
CONTINUOUS
 62
     7
 10
8.4907313455999986
 20
4.8512284709999989
 30
0.0
 11
8.4907313455999986
 21
4.9762284709999989
 31
0.0
  0
INSERT
  5
224
  8
0
  2
*U13
 10
0.0
 20
0.0
 30
0.0
  0
ENDBLK
  5
225
  8
0
  0
BLOCK
  8
0
  2
*U13
 70
     1
 10
0.0
 20
0.0
 30
0.0
  3
*U13
  1

  0
TEXT
  5
44E
  8
0
 62
     7
 10
8.3244813377999982
 20
4.6310797808000004
 30
0.0
 40
0.1
  1
1.357
 41
0.75
  7
SLDTEXTSTYLE2
  0
ENDBLK
  5
450
  8
0
  0
BLOCK
  8
0
  2
_D_6
 70
     0
 10
0.0
 20
0.0
 30
0.0
  3
_D_6
  1

  0
SOLID
  5
228
  8
0
  6
CONTINUOUS
 62
     7
 10
8.2545108731999992
 20
4.8512284709999989
 30
0.0
 11
8.2675108732000009
 21
4.9292284710000001
 31
0.0
 12
8.2415108732000011
 22
4.9292284710000001
 32
0.0
 13
8.2415108732000011
 23
4.9292284710000001
 33
0.0
  0
SOLID
  5
229
  8
0
  6
CONTINUOUS
 62
     7
 10
8.2545108731999992
 20
5.6637284709999989
 30
0.0
 11
8.2415108732000011
 21
5.5857284710000004
 31
0.0
 12
8.2675108732000009
 22
5.5857284710000004
 32
0.0
 13
8.2675108732000009
 23
5.5857284710000004
 33
0.0
  0
LINE
  5
22A
  8
0
  6
CONTINUOUS
 62
     7
 10
7.8239210129999988
 20
4.8512284709999989
 30
0.0
 11
8.3045108731999981
 21
4.8512284709999989
 31
0.0
  0
LINE
  5
22B
  8
0
  6
CONTINUOUS
 62
     7
 10
7.8239210129999988
 20
5.6637284709999989
 30
0.0
 11
8.3045108731999981
 21
5.6637284709999989
 31
0.0
  0
LINE
  5
22C
  8
0
  6
CONTINUOUS
 62
     7
 10
8.2545108731999992
 20
4.8512284709999989
 30
0.0
 11
8.2545108731999992
 21
5.1781034703999991
 31
0.0
  0
LINE
  5
22D
  8
0
  6
CONTINUOUS
 62
     7
 10
8.2545108731999992
 20
5.6637284709999989
 30
0.0
 11
8.2545108731999992
 21
5.3368534714999987
 31
0.0
  0
INSERT
  5
22E
  8
0
  2
*U15
 10
0.0
 20
0.0
 30
0.0
  0
ENDBLK
  5
22F
  8
0
  0
BLOCK
  8
0
  2
*U15
 70
     1
 10
0.0
 20
0.0
 30
0.0
  3
*U15
  1

  0
TEXT
  5
452
  8
0
 62
     7
 10
8.0882608654000006
 20
5.2070102444000002
 30
0.0
 40
0.1
  1
3.250
 41
0.75
  7
SLDTEXTSTYLE2
  0
ENDBLK
  5
454
  8
0
  0
BLOCK
  8
0
  2
_D_7
 70
     0
 10
0.0
 20
0.0
 30
0.0
  3
_D_7
  1

  0
SOLID
  5
232
  8
0
  6
CONTINUOUS
 62
     7
 10
8.7269518180999999
 20
4.5118675437000002
 30
0.0
 11
8.7399518180999998
 21
4.5898675436999987
 31
0.0
 12
8.7139518180999982
 22
4.5898675436999987
 32
0.0
 13
8.7139518180999982
 23
4.5898675436999987
 33
0.0
  0
SOLID
  5
233
  8
0
  6
CONTINUOUS
 62
     7
 10
8.7269518180999999
 20
6.0030893982000002
 30
0.0
 11
8.7139518180999982
 21
5.925089398199999
 31
0.0
 12
8.7399518180999998
 22
5.925089398199999
 32
0.0
 13
8.7399518180999998
 23
5.925089398199999
 33
0.0
  0
LINE
  5
234
  8
0
  6
CONTINUOUS
 62
     7
 10
6.588310085799999
 20
4.5118675437000002
 30
0.0
 11
8.7769518181000006
 21
4.5118675437000002
 31
0.0
  0
LINE
  5
235
  8
0
  6
CONTINUOUS
 62
     7
 10
6.588310085799999
 20
6.0030893982000002
 30
0.0
 11
8.7769518181000006
 21
6.0030893982000002
 31
0.0
  0
LINE
  5
236
  8
0
  6
CONTINUOUS
 62
     7
 10
8.7269518180999999
 20
4.5118675437000002
 30
0.0
 11
8.7269518180999999
 21
5.1781034703999991
 31
0.0
  0
LINE
  5
237
  8
0
  6
CONTINUOUS
 62
     7
 10
8.7269518180999999
 20
6.0030893982000002
 30
0.0
 11
8.7269518180999999
 21
5.3368534714999987
 31
0.0
  0
INSERT
  5
238
  8
0
  2
*U17
 10
0.0
 20
0.0
 30
0.0
  0
ENDBLK
  5
239
  8
0
  0
BLOCK
  8
0
  2
*U17
 70
     1
 10
0.0
 20
0.0
 30
0.0
  3
*U17
  1

  0
TEXT
  5
456
  8
0
 62
     7
 10
8.5607018102999977
 20
5.2070102444000002
 30
0.0
 40
0.1
  1
5.965
 41
0.75
  7
SLDTEXTSTYLE2
  0
ENDBLK
  5
458
  8
0
  0
BLOCK
  8
0
  2
_D_8
 70
     0
 10
0.0
 20
0.0
 30
0.0
  3
_D_8
  1

  0
SOLID
  5
23C
  8
0
  6
CONTINUOUS
 62
     7
 10
7.860810085799999
 20
6.468679258399999
 30
0.0
 11
7.7828100858000004
 21
6.4816792583999989
 31
0.0
 12
7.7828100858000004
 22
6.4556792584
 32
0.0
 13
7.7828100858000004
 23
6.4556792584
 33
0.0
  0
SOLID
  5
23D
  8
0
  6
CONTINUOUS
 62
     7
 10
3.6208100857999992
 20
6.468679258399999
 30
0.0
 11
3.6988100857999981
 21
6.4556792584
 31
0.0
 12
3.6988100857999981
 22
6.4816792583999989
 32
0.0
 13
3.6988100857999981
 23
6.4816792583999989
 33
0.0
  0
LINE
  5
23E
  8
0
  6
CONTINUOUS
 62
     7
 10
7.860810085799999
 20
5.8737284709999988
 30
0.0
 11
7.860810085799999
 21
6.5186792583999988
 31
0.0
  0
LINE
  5
23F
  8
0
  6
CONTINUOUS
 62
     7
 10
3.6208100857999992
 20
5.8737284709999988
 30
0.0
 11
3.6208100857999992
 21
6.5186792583999988
 31
0.0
  0
LINE
  5
240
  8
0
  6
CONTINUOUS
 62
     7
 10
7.860810085799999
 20
6.468679258399999
 30
0.0
 11
5.9440045417999992
 21
6.468679258399999
 31
0.0
  0
LINE
  5
241
  8
0
  6
CONTINUOUS
 62
     7
 10
3.6208100857999992
 20
6.468679258399999
 30
0.0
 11
5.5376156298000003
 21
6.468679258399999
 31
0.0
  0
INSERT
  5
242
  8
0
  2
*U19
 10
0.0
 20
0.0
 30
0.0
  0
ENDBLK
  5
243
  8
0
  0
BLOCK
  8
0
  2
*U19
 70
     1
 10
0.0
 20
0.0
 30
0.0
  3
*U19
  1

  0
TEXT
  5
45A
  8
0
 62
     7
 10
5.5376156298000003
 20
6.4182110318000003
 30
0.0
 40
0.1
  1
16.960
 41
0.75
  7
SLDTEXTSTYLE2
  0
ENDBLK
  5
45C
  8
0
  0
BLOCK
  8
0
  2
_D_9
 70
     0
 10
0.0
 20
0.0
 30
0.0
  3
_D_9
  1

  0
SOLID
  5
246
  8
0
  6
CONTINUOUS
 62
     7
 10
3.227109298399998
 20
6.0749784709999988
 30
0.0
 11
3.2141092983999981
 21
5.9969784710000003
 31
0.0
 12
3.240109298399998
 22
5.9969784710000003
 32
0.0
 13
3.240109298399998
 23
5.9969784710000003
 33
0.0
  0
SOLID
  5
247
  8
0
  6
CONTINUOUS
 62
     7
 10
3.227109298399998
 20
4.4399784709999981
 30
0.0
 11
3.240109298399998
 21
4.5179784710000002
 31
0.0
 12
3.2141092983999981
 22
4.5179784710000002
 32
0.0
 13
3.2141092983999981
 23
4.5179784710000002
 33
0.0
  0
LINE
  5
248
  8
0
  6
CONTINUOUS
 62
     7
 10
3.8220600858
 20
6.0749784709999988
 30
0.0
 11
3.1771092983999991
 21
6.0749784709999988
 31
0.0
  0
LINE
  5
249
  8
0
  6
CONTINUOUS
 62
     7
 10
3.8220600858
 20
4.4399784709999981
 30
0.0
 11
3.1771092983999991
 21
4.4399784709999981
 31
0.0
  0
LINE
  5
24A
  8
0
  6
CONTINUOUS
 62
     7
 10
3.227109298399998
 20
6.0749784709999988
 30
0.0
 11
3.227109298399998
 21
5.3368534714999987
 31
0.0
  0
LINE
  5
24B
  8
0
  6
CONTINUOUS
 62
     7
 10
3.227109298399998
 20
4.4399784709999981
 30
0.0
 11
3.227109298399998
 21
5.1781034703999991
 31
0.0
  0
INSERT
  5
24C
  8
0
  2
*U21
 10
0.0
 20
0.0
 30
0.0
  0
ENDBLK
  5
24D
  8
0
  0
BLOCK
  8
0
  2
*U21
 70
     1
 10
0.0
 20
0.0
 30
0.0
  3
*U21
  1

  0
TEXT
  5
45E
  8
0
 62
     7
 10
3.0608592905999981
 20
5.2070102444000002
 30
0.0
 40
0.1
  1
6.540
 41
0.75
  7
SLDTEXTSTYLE2
  0
ENDBLK
  5
460
  8
0
  0
BLOCK
  8
0
  2
_D_10
 70
     0
 10
0.0
 20
0.0
 30
0.0
  3
_D_10
  1

  0
SOLID
  5
250
  8
0
  6
CONTINUOUS
 62
     7
 10
3.7031200789999992
 20
4.4970175985000003
 30
0.0
 11
3.6424341027999989
 21
4.4463203373000004
 31
0.0
 12
3.6621567807999988
 22
4.4293787915999987
 32
0.0
 13
3.6621567807999988
 23
4.4293787915999987
 33
0.0
  0
LINE
  5
251
  8
0
  6
CONTINUOUS
 62
     7
 10
3.7031200789999992
 20
4.4970175985000003
 30
0.0
 11
3.5044204406000001
 21
4.2656993317999987
 31
0.0
  0
LINE
  5
252
  8
0
  6
CONTINUOUS
 62
     7
 10
3.5044204406000001
 20
4.2656993317999987
 30
0.0
 11
3.4044204406
 21
4.2656993317999987
 31
0.0
  0
INSERT
  5
253
  8
0
  2
*U23
 10
0.0
 20
0.0
 30
0.0
  0
ENDBLK
  5
254
  8
0
  0
BLOCK
  8
0
  2
*U23
 70
     1
 10
0.0
 20
0.0
 30
0.0
  3
*U23
  1

  0
TEXT
  5
462
  8
0
 62
     7
 10
3.0648370935
 20
4.2152311051999991
 30
0.0
 40
0.1
  1
R.945
 41
0.75
  7
SLDTEXTSTYLE2
  0
ENDBLK
  5
464
  8
0
  0
BLOCK
  8
0
  2
_D_11
 70
     0
 10
0.0
 20
0.0
 30
0.0
  3
_D_11
  1

  0
SOLID
  5
257
  8
0
  6
CONTINUOUS
 62
     7
 10
4.9366077181000003
 20
4.5525295566999988
 30
0.0
 11
4.9649407659999989
 21
4.6263552865999991
 31
0.0
 12
4.9394657698999991
 22
4.6315538032000001
 32
0.0
 13
4.9394657698999991
 23
4.6315538032000001
 33
0.0
  0
LINE
  5
258
  8
0
  6
CONTINUOUS
 62
     7
 10
4.9366077181000003
 20
4.5525295566999988
 30
0.0
 11
5.0554035826000003
 21
5.1346810438999979
 31
0.0
  0
LINE
  5
259
  8
0
  6
CONTINUOUS
 62
     7
 10
5.0554035826000003
 20
5.1346810438999979
 30
0.0
 11
5.1241535825999991
 21
5.1346810438999979
 31
0.0
  0
INSERT
  5
25A
  8
0
  2
*U25
 10
0.0
 20
0.0
 30
0.0
  0
INSERT
  5
25B
  8
0
  2
*U26
 10
0.0
 20
0.0
 30
0.0
  0
INSERT
  5
25C
  8
0
  2
*U27
 10
0.0
 20
0.0
 30
0.0
  0
INSERT
  5
25D
  8
0
  6
CONTINUOUS
 62
     7
  2
SW_SYMBOL_HOLE_SINK
 10
5.2385911693000002
 20
4.9882704509999991
 30
0.0
 41
0.0032444531
 42
0.0032444531
 43
0.0032444531
  0
INSERT
  5
25E
  8
0
  2
*U29
 10
0.0
 20
0.0
 30
0.0
  0
INSERT
  5
25F
  8
0
  2
*U30
 10
0.0
 20
0.0
 30
0.0
  0
ENDBLK
  5
260
  8
0
  0
BLOCK
  8
0
  2
*U25
 70
     1
 10
0.0
 20
0.0
 30
0.0
  3
*U25
  1

  0
TEXT
  5
466
  8
0
 62
     7
 10
5.1866535825999991
 20
5.165115608499999
 30
0.0
 40
0.1
  1
8X
 41
0.75
  7
SLDTEXTSTYLE2
  0
ENDBLK
  5
468
  8
0
  0
BLOCK
  8
0
  2
*U26
 70
     1
 10
0.0
 20
0.0
 30
0.0
  3
*U26
  1

  0
TEXT
  5
46A
  8
0
 62
     7
 10
5.378736920399998
 20
5.163587829299999
 30
0.0
 40
0.1
  1
\U+2205
 41
0.75
  7
SLDTEXTSTYLE2
  0
ENDBLK
  5
46C
  8
0
  0
BLOCK
  8
0
  2
*U27
 70
     1
 10
0.0
 20
0.0
 30
0.0
  3
*U27
  1

  0
TEXT
  5
46E
  8
0
 62
     7
 10
5.5670494315000001
 20
5.165115608499999
 30
0.0
 40
0.1
  1
.194 THRU ALL
 41
0.75
  7
SLDTEXTSTYLE2
  0
ENDBLK
  5
470
  8
0
  0
BLOCK
  8
0
  2
SW_SYMBOL_HOLE_SINK
 70
     0
 10
0.0
 20
0.0
 30
0.0
  3
SW_SYMBOL_HOLE_SINK
  1

  0
LINE
  5
263
  8
0
  6
CONTINUOUS
 62
     0
 10
0.0
 20
34.448818897599999
 30
0.0
 11
31.496062992100001
 21
2.9527559055000001
 31
0.0
  0
LINE
  5
264
  8
0
  6
CONTINUOUS
 62
     0
 10
31.496062992100001
 20
2.9527559055000001
 30
0.0
 11
62.992125984300003
 21
34.448818897599999
 31
0.0
  0
ENDBLK
  5
265
  8
0
  0
BLOCK
  8
0
  2
*U29
 70
     1
 10
0.0
 20
0.0
 30
0.0
  3
*U29
  1

  0
TEXT
  5
472
  8
0
 62
     7
 10
5.5084661766999981
 20
5.0033100375000004
 30
0.0
 40
0.1
  1
\U+2205
 41
0.75
  7
SLDTEXTSTYLE2
  0
ENDBLK
  5
474
  8
0
  0
BLOCK
  8
0
  2
*U30
 70
     1
 10
0.0
 20
0.0
 30
0.0
  3
*U30
  1

  0
TEXT
  5
476
  8
0
 62
     7
 10
5.6967786694999987
 20
5.0048378167000003
 30
0.0
 40
0.1
  1
.332 X 100°
 41
0.75
  7
SLDTEXTSTYLE2
  0
ENDBLK
  5
478
  8
0
  0
BLOCK
  8
0
  2
*D31
 70
     1
 10
0.0
 20
0.0
 30
0.0
  3
*D31
  1

  0
LINE
  5
352
  8
0
  6
CONTINUOUS
 62
     0
 10
6.5635440365544557
 20
2.0586309773525442
 30
0.0
 11
6.5635440365544557
 21
1.491180189952545
 31
0.0
  0
LINE
  5
353
  8
0
  6
CONTINUOUS
 62
     0
 10
6.4916549637544563
 20
2.233630977352544
 30
0.0
 11
6.4916549637544563
 21
1.491180189952545
 31
0.0
  0
LINE
  5
354
  8
0
  6
CONTINUOUS
 62
     0
 10
6.4136549637544551
 20
1.491180189952545
 30
0.0
 11
6.3356549637544548
 21
1.491180189952545
 31
0.0
  0
LINE
  5
355
  8
0
  6
CONTINUOUS
 62
     0
 10
6.641544036554456
 20
1.491180189952545
 30
0.0
 11
6.7195440365544572
 21
1.491180189952545
 31
0.0
  0
LINE
  5
356
  8
0
  6
CONTINUOUS
 62
     0
 10
6.4916549637544563
 20
1.491180189952545
 30
0.0
 11
6.5635440365544557
 21
1.491180189952545
 31
0.0
  0
SOLID
  5
357
  8
0
  6
CONTINUOUS
 62
     0
 10
6.4136549637544551
 20
1.5041801899525451
 30
0.0
 11
6.4136549637544551
 21
1.4781801899525451
 31
0.0
 12
6.4916549637544563
 22
1.491180189952545
 32
0.0
 13
6.4916549637544563
 23
1.491180189952545
 33
0.0
  0
SOLID
  5
358
  8
0
  6
CONTINUOUS
 62
     0
 10
6.641544036554456
 20
1.5041801899525451
 30
0.0
 11
6.641544036554456
 21
1.4781801899525451
 31
0.0
 12
6.5635440365544557
 22
1.491180189952545
 32
0.0
 13
6.5635440365544557
 23
1.491180189952545
 33
0.0
  0
INSERT
  5
359
  8
0
  2
*U32
 10
0.0
 20
0.0
 30
0.0
  0
POINT
  5
35A
  8
DEFPOINTS
  6
CONTINUOUS
 62
     0
 10
6.5635440365544557
 20
2.1211309773525442
 30
0.0
  0
POINT
  5
35B
  8
DEFPOINTS
  6
CONTINUOUS
 62
     0
 10
6.4916549637544563
 20
2.296130977352544
 30
0.0
  0
POINT
  5
35C
  8
DEFPOINTS
  6
CONTINUOUS
 62
     0
 10
6.4916549637544563
 20
1.491180189952545
 30
0.0
  0
ENDBLK
  5
2BC
  8
0
  0
BLOCK
  8
0
  2
*U32
 70
     1
 10
0.0
 20
0.0
 30
0.0
  3
*U32
  1

  0
TEXT
  5
47A
  8
0
 62
     0
 10
6.7445440365544558
 20
1.441180189952544
 30
0.0
 40
0.1
  1
.288
 41
0.75
  7
SLDTEXTSTYLE2
  0
ENDBLK
  5
47C
  8
0
  0
BLOCK
  8
0
  2
*D33
 70
     1
 10
0.0
 20
0.0
 30
0.0
  3
*D33
  1

  0
LINE
  5
35D
  8
0
  6
CONTINUOUS
 62
     0
 10
6.4916549637544563
 20
2.233630977352544
 30
0.0
 11
6.4916549637544563
 21
1.491180189952545
 31
0.0
  0
LINE
  5
35E
  8
0
  6
CONTINUOUS
 62
     0
 10
5.2560440365544574
 20
1.8942700500525429
 30
0.0
 11
5.2560440365544574
 21
1.491180189952545
 31
0.0
  0
LINE
  5
35F
  8
0
  6
CONTINUOUS
 62
     0
 10
6.4136549637544551
 20
1.491180189952545
 30
0.0
 11
6.0488495001544571
 21
1.491180189952545
 31
0.0
  0
LINE
  5
360
  8
0
  6
CONTINUOUS
 62
     0
 10
5.3340440365544559
 20
1.491180189952545
 30
0.0
 11
5.6988495001544557
 21
1.491180189952545
 31
0.0
  0
SOLID
  5
361
  8
0
  6
CONTINUOUS
 62
     0
 10
6.4136549637544551
 20
1.5041801899525451
 30
0.0
 11
6.4136549637544551
 21
1.4781801899525451
 31
0.0
 12
6.4916549637544563
 22
1.491180189952545
 32
0.0
 13
6.4916549637544563
 23
1.491180189952545
 33
0.0
  0
SOLID
  5
362
  8
0
  6
CONTINUOUS
 62
     0
 10
5.3340440365544559
 20
1.5041801899525451
 30
0.0
 11
5.3340440365544559
 21
1.4781801899525451
 31
0.0
 12
5.2560440365544574
 22
1.491180189952545
 32
0.0
 13
5.2560440365544574
 23
1.491180189952545
 33
0.0
  0
INSERT
  5
363
  8
0
  2
*U34
 10
0.0
 20
0.0
 30
0.0
  0
POINT
  5
364
  8
DEFPOINTS
  6
CONTINUOUS
 62
     0
 10
6.4916549637544563
 20
2.296130977352544
 30
0.0
  0
POINT
  5
365
  8
DEFPOINTS
  6
CONTINUOUS
 62
     0
 10
5.2560440365544574
 20
1.9567700500525429
 30
0.0
  0
POINT
  5
366
  8
DEFPOINTS
  6
CONTINUOUS
 62
     0
 10
5.2560440365544574
 20
1.491180189952545
 30
0.0
  0
ENDBLK
  5
2CA
  8
0
  0
BLOCK
  8
0
  2
*U34
 70
     1
 10
0.0
 20
0.0
 30
0.0
  3
*U34
  1

  0
TEXT
  5
47E
  8
0
 62
     0
 10
5.723849500154456
 20
1.441180189952544
 30
0.0
 40
0.1
  1
4.942
 41
0.75
  7
SLDTEXTSTYLE2
  0
ENDBLK
  5
480
  8
0
  0
BLOCK
  8
0
  2
*D35
 70
     1
 10
0.0
 20
0.0
 30
0.0
  3
*D35
  1

  0
LINE
  5
367
  8
0
  6
CONTINUOUS
 62
     0
 10
5.2560440365544574
 20
1.8942700500525429
 30
0.0
 11
5.2560440365544574
 21
1.491180189952545
 31
0.0
  0
LINE
  5
368
  8
0
  6
CONTINUOUS
 62
     0
 10
3.6310440365544561
 20
1.8942700500525429
 30
0.0
 11
3.6310440365544561
 21
1.491180189952545
 31
0.0
  0
LINE
  5
369
  8
0
  6
CONTINUOUS
 62
     0
 10
5.1780440365544571
 20
1.491180189952545
 30
0.0
 11
4.606044036554457
 21
1.491180189952545
 31
0.0
  0
LINE
  5
36A
  8
0
  6
CONTINUOUS
 62
     0
 10
3.709044036554455
 20
1.491180189952545
 30
0.0
 11
4.281044036554456
 21
1.491180189952545
 31
0.0
  0
SOLID
  5
36B
  8
0
  6
CONTINUOUS
 62
     0
 10
5.1780440365544571
 20
1.5041801899525451
 30
0.0
 11
5.1780440365544571
 21
1.4781801899525451
 31
0.0
 12
5.2560440365544574
 22
1.491180189952545
 32
0.0
 13
5.2560440365544574
 23
1.491180189952545
 33
0.0
  0
SOLID
  5
36C
  8
0
  6
CONTINUOUS
 62
     0
 10
3.709044036554455
 20
1.5041801899525451
 30
0.0
 11
3.709044036554455
 21
1.4781801899525451
 31
0.0
 12
3.6310440365544561
 22
1.491180189952545
 32
0.0
 13
3.6310440365544561
 23
1.491180189952545
 33
0.0
  0
INSERT
  5
36D
  8
0
  2
*U36
 10
0.0
 20
0.0
 30
0.0
  0
POINT
  5
36E
  8
DEFPOINTS
  6
CONTINUOUS
 62
     0
 10
5.2560440365544574
 20
1.9567700500525429
 30
0.0
  0
POINT
  5
36F
  8
DEFPOINTS
  6
CONTINUOUS
 62
     0
 10
3.6310440365544561
 20
1.9567700500525429
 30
0.0
  0
POINT
  5
370
  8
DEFPOINTS
  6
CONTINUOUS
 62
     0
 10
3.6310440365544561
 20
1.491180189952545
 30
0.0
  0
ENDBLK
  5
2D7
  8
0
  0
BLOCK
  8
0
  2
*U36
 70
     1
 10
0.0
 20
0.0
 30
0.0
  3
*U36
  1

  0
TEXT
  5
482
  8
0
 62
     0
 10
4.3060440365544572
 20
1.441180189952544
 30
0.0
 40
0.1
  1
6.500
 41
0.75
  7
SLDTEXTSTYLE2
  0
ENDBLK
  5
484
  8
0
  0
BLOCK
  8
0
  2
*D37
 70
     1
 10
0.0
 20
0.0
 30
0.0
  3
*D37
  1

  0
LINE
  5
371
  8
0
  6
CONTINUOUS
 62
     0
 10
6.4916549637544563
 20
2.233630977352544
 30
0.0
 11
6.4916549637544563
 21
1.2549597174525431
 31
0.0
  0
LINE
  5
372
  8
0
  6
CONTINUOUS
 62
     0
 10
2.3954331092544559
 20
2.233630977352544
 30
0.0
 11
2.3954331092544559
 21
1.2549597174525431
 31
0.0
  0
LINE
  5
373
  8
0
  6
CONTINUOUS
 62
     0
 10
6.4136549637544551
 20
1.2549597174525431
 30
0.0
 11
4.6435440365544558
 21
1.2549597174525431
 31
0.0
  0
LINE
  5
374
  8
0
  6
CONTINUOUS
 62
     0
 10
2.473433109254457
 20
1.2549597174525431
 30
0.0
 11
4.2435440365544572
 21
1.2549597174525431
 31
0.0
  0
SOLID
  5
375
  8
0
  6
CONTINUOUS
 62
     0
 10
6.4136549637544551
 20
1.2679597174525441
 30
0.0
 11
6.4136549637544551
 21
1.2419597174525441
 31
0.0
 12
6.4916549637544563
 22
1.2549597174525431
 32
0.0
 13
6.4916549637544563
 23
1.2549597174525431
 33
0.0
  0
SOLID
  5
376
  8
0
  6
CONTINUOUS
 62
     0
 10
2.473433109254457
 20
1.2679597174525441
 30
0.0
 11
2.473433109254457
 21
1.2419597174525441
 31
0.0
 12
2.3954331092544559
 22
1.2549597174525431
 32
0.0
 13
2.3954331092544559
 23
1.2549597174525431
 33
0.0
  0
INSERT
  5
377
  8
0
  2
*U38
 10
0.0
 20
0.0
 30
0.0
  0
POINT
  5
378
  8
DEFPOINTS
  6
CONTINUOUS
 62
     0
 10
6.4916549637544563
 20
2.296130977352544
 30
0.0
  0
POINT
  5
379
  8
DEFPOINTS
  6
CONTINUOUS
 62
     0
 10
2.3954331092544559
 20
2.296130977352544
 30
0.0
  0
POINT
  5
37A
  8
DEFPOINTS
  6
CONTINUOUS
 62
     0
 10
2.3954331092544559
 20
1.2549597174525431
 30
0.0
  0
ENDBLK
  5
2E4
  8
0
  0
BLOCK
  8
0
  2
*U38
 70
     1
 10
0.0
 20
0.0
 30
0.0
  3
*U38
  1

  0
TEXT
  5
486
  8
0
 62
     0
 10
4.2685440365544558
 20
1.204959717452543
 30
0.0
 40
0.1
  1
16.385
 41
0.75
  7
SLDTEXTSTYLE2
  0
ENDBLK
  5
488
  8
0
  0
BLOCK
  8
0
  2
*D39
 70
     1
 10
0.0
 20
0.0
 30
0.0
  3
*D39
  1

  0
LINE
  5
37B
  8
0
  6
CONTINUOUS
 62
     0
 10
6.3897940365544574
 20
1.884880977352543
 30
0.0
 11
7.1727448239544573
 21
1.884880977352543
 31
0.0
  0
LINE
  5
37C
  8
0
  6
CONTINUOUS
 62
     0
 10
5.3185440365544574
 20
1.9567700500525429
 30
0.0
 11
7.1727448239544573
 21
1.9567700500525429
 31
0.0
  0
LINE
  5
37D
  8
0
  6
CONTINUOUS
 62
     0
 10
7.1727448239544591
 20
2.034770050052543
 30
0.0
 11
7.1727448239544591
 21
2.1127700500525441
 31
0.0
  0
LINE
  5
37E
  8
0
  6
CONTINUOUS
 62
     0
 10
7.1727448239544573
 20
1.806880977352544
 30
0.0
 11
7.1727448239544573
 21
1.680505976752543
 31
0.0
  0
LINE
  5
37F
  8
0
  6
CONTINUOUS
 62
     0
 10
7.1727448239544573
 20
1.680505976752543
 30
0.0
 11
7.094744823954457
 21
1.680505976752543
 31
0.0
  0
LINE
  5
380
  8
0
  6
CONTINUOUS
 62
     0
 10
7.1727448239544573
 20
1.9567700500525429
 30
0.0
 11
7.1727448239544573
 21
1.884880977352543
 31
0.0
  0
SOLID
  5
381
  8
0
  6
CONTINUOUS
 62
     0
 10
7.1597448239544592
 20
2.034770050052543
 30
0.0
 11
7.185744823954459
 21
2.034770050052543
 31
0.0
 12
7.1727448239544573
 22
1.9567700500525429
 32
0.0
 13
7.1727448239544573
 23
1.9567700500525429
 33
0.0
  0
SOLID
  5
382
  8
0
  6
CONTINUOUS
 62
     0
 10
7.1597448239544574
 20
1.806880977352544
 30
0.0
 11
7.1857448239544572
 21
1.806880977352544
 31
0.0
 12
7.1727448239544573
 22
1.884880977352543
 32
0.0
 13
7.1727448239544573
 23
1.884880977352543
 33
0.0
  0
INSERT
  5
383
  8
0
  2
*U40
 10
0.0
 20
0.0
 30
0.0
  0
POINT
  5
384
  8
DEFPOINTS
  6
CONTINUOUS
 62
     0
 10
6.3272940365544574
 20
1.884880977352543
 30
0.0
  0
POINT
  5
385
  8
DEFPOINTS
  6
CONTINUOUS
 62
     0
 10
5.2560440365544574
 20
1.9567700500525429
 30
0.0
  0
POINT
  5
386
  8
DEFPOINTS
  6
CONTINUOUS
 62
     0
 10
7.1727448239544573
 20
1.9567700500525429
 30
0.0
  0
ENDBLK
  5
2F1
  8
0
  0
BLOCK
  8
0
  2
*U40
 70
     1
 10
0.0
 20
0.0
 30
0.0
  3
*U40
  1

  0
TEXT
  5
48A
  8
0
 62
     0
 10
6.844744823954457
 20
1.6305059767525441
 30
0.0
 40
0.1
  1
.288
 41
0.75
  7
SLDTEXTSTYLE2
  0
ENDBLK
  5
48C
  8
0
  0
BLOCK
  8
0
  2
*D41
 70
     1
 10
0.0
 20
0.0
 30
0.0
  3
*D41
  1

  0
LINE
  5
387
  8
0
  6
CONTINUOUS
 62
     0
 10
5.3185440365544574
 20
1.9567700500525429
 30
0.0
 11
7.1934652963544563
 21
1.9567700500525429
 31
0.0
  0
LINE
  5
388
  8
0
  6
CONTINUOUS
 62
     0
 10
6.5541549637544563
 20
2.296130977352544
 30
0.0
 11
7.1934652963544563
 21
2.296130977352544
 31
0.0
  0
LINE
  5
389
  8
0
  6
CONTINUOUS
 62
     0
 10
7.1934652963544563
 20
2.034770050052543
 30
0.0
 11
7.1934652963544563
 21
2.0514505136525432
 31
0.0
  0
LINE
  5
38A
  8
0
  6
CONTINUOUS
 62
     0
 10
7.1934652963544563
 20
2.2181309773525442
 30
0.0
 11
7.1934652963544563
 21
2.2014505136525431
 31
0.0
  0
SOLID
  5
38B
  8
0
  6
CONTINUOUS
 62
     0
 10
7.1804652963544564
 20
2.034770050052543
 30
0.0
 11
7.2064652963544562
 21
2.034770050052543
 31
0.0
 12
7.1934652963544563
 22
1.9567700500525429
 32
0.0
 13
7.1934652963544563
 23
1.9567700500525429
 33
0.0
  0
SOLID
  5
38C
  8
0
  6
CONTINUOUS
 62
     0
 10
7.1804652963544564
 20
2.2181309773525442
 30
0.0
 11
7.2064652963544562
 21
2.2181309773525442
 31
0.0
 12
7.1934652963544563
 22
2.296130977352544
 32
0.0
 13
7.1934652963544563
 23
2.296130977352544
 33
0.0
  0
INSERT
  5
38D
  8
0
  2
*U42
 10
0.0
 20
0.0
 30
0.0
  0
POINT
  5
38E
  8
DEFPOINTS
  6
CONTINUOUS
 62
     0
 10
5.2560440365544574
 20
1.9567700500525429
 30
0.0
  0
POINT
  5
38F
  8
DEFPOINTS
  6
CONTINUOUS
 62
     0
 10
6.4916549637544563
 20
2.296130977352544
 30
0.0
  0
POINT
  5
390
  8
DEFPOINTS
  6
CONTINUOUS
 62
     0
 10
7.1934652963544563
 20
2.296130977352544
 30
0.0
  0
ENDBLK
  5
300
  8
0
  0
BLOCK
  8
0
  2
*U42
 70
     1
 10
0.0
 20
0.0
 30
0.0
  3
*U42
  1

  0
TEXT
  5
48E
  8
0
 62
     0
 10
7.0559652963544552
 20
2.0764505136525431
 30
0.0
 40
0.1
  1
1.357
 41
0.75
  7
SLDTEXTSTYLE2
  0
ENDBLK
  5
490
  8
0
  0
BLOCK
  8
0
  2
*D43
 70
     1
 10
0.0
 20
0.0
 30
0.0
  3
*D43
  1

  0
LINE
  5
391
  8
0
  6
CONTINUOUS
 62
     0
 10
6.5541549637544563
 20
2.296130977352544
 30
0.0
 11
6.9572448239544569
 21
2.296130977352544
 31
0.0
  0
LINE
  5
392
  8
0
  6
CONTINUOUS
 62
     0
 10
6.5541549637544563
 20
3.108630977352544
 30
0.0
 11
6.9572448239544569
 21
3.108630977352544
 31
0.0
  0
LINE
  5
393
  8
0
  6
CONTINUOUS
 62
     0
 10
6.9572448239544569
 20
2.3741309773525439
 30
0.0
 11
6.9572448239544569
 21
2.6273809773525429
 31
0.0
  0
LINE
  5
394
  8
0
  6
CONTINUOUS
 62
     0
 10
6.9572448239544569
 20
3.0306309773525442
 30
0.0
 11
6.9572448239544569
 21
2.7773809773525442
 31
0.0
  0
SOLID
  5
395
  8
0
  6
CONTINUOUS
 62
     0
 10
6.944244823954457
 20
2.3741309773525439
 30
0.0
 11
6.9702448239544568
 21
2.3741309773525439
 31
0.0
 12
6.9572448239544569
 22
2.296130977352544
 32
0.0
 13
6.9572448239544569
 23
2.296130977352544
 33
0.0
  0
SOLID
  5
396
  8
0
  6
CONTINUOUS
 62
     0
 10
6.944244823954457
 20
3.0306309773525442
 30
0.0
 11
6.9702448239544568
 21
3.0306309773525442
 31
0.0
 12
6.9572448239544569
 22
3.108630977352544
 32
0.0
 13
6.9572448239544569
 23
3.108630977352544
 33
0.0
  0
INSERT
  5
397
  8
0
  2
*U44
 10
0.0
 20
0.0
 30
0.0
  0
POINT
  5
398
  8
DEFPOINTS
  6
CONTINUOUS
 62
     0
 10
6.4916549637544563
 20
2.296130977352544
 30
0.0
  0
POINT
  5
399
  8
DEFPOINTS
  6
CONTINUOUS
 62
     0
 10
6.4916549637544563
 20
3.108630977352544
 30
0.0
  0
POINT
  5
39A
  8
DEFPOINTS
  6
CONTINUOUS
 62
     0
 10
6.9572448239544569
 20
3.108630977352544
 30
0.0
  0
ENDBLK
  5
30D
  8
0
  0
BLOCK
  8
0
  2
*U44
 70
     1
 10
0.0
 20
0.0
 30
0.0
  3
*U44
  1

  0
TEXT
  5
492
  8
0
 62
     0
 10
6.813494823954457
 20
2.6523809773525442
 30
0.0
 40
0.1
  1
3.250
 41
0.75
  7
SLDTEXTSTYLE2
  0
ENDBLK
  5
494
  8
0
  0
BLOCK
  8
0
  2
*D45
 70
     1
 10
0.0
 20
0.0
 30
0.0
  3
*D45
  1

  0
LINE
  5
39B
  8
0
  6
CONTINUOUS
 62
     0
 10
5.3185440365544574
 20
1.9567700500525429
 30
0.0
 11
7.4296857688544531
 21
1.9567700500525429
 31
0.0
  0
LINE
  5
39C
  8
0
  6
CONTINUOUS
 62
     0
 10
5.3185440365544574
 20
3.4479919045525431
 30
0.0
 11
7.4296857688544549
 21
3.4479919045525431
 31
0.0
  0
LINE
  5
39D
  8
0
  6
CONTINUOUS
 62
     0
 10
7.4296857688544549
 20
2.034770050052543
 30
0.0
 11
7.4296857688544549
 21
2.6273809773525421
 31
0.0
  0
LINE
  5
39E
  8
0
  6
CONTINUOUS
 62
     0
 10
7.4296857688544549
 20
3.3699919045525442
 30
0.0
 11
7.4296857688544549
 21
2.7773809773525442
 31
0.0
  0
SOLID
  5
39F
  8
0
  6
CONTINUOUS
 62
     0
 10
7.416685768854455
 20
2.034770050052543
 30
0.0
 11
7.4426857688544574
 21
2.034770050052543
 31
0.0
 12
7.4296857688544531
 22
1.9567700500525429
 32
0.0
 13
7.4296857688544531
 23
1.9567700500525429
 33
0.0
  0
SOLID
  5
3A0
  8
0
  6
CONTINUOUS
 62
     0
 10
7.416685768854455
 20
3.3699919045525442
 30
0.0
 11
7.4426857688544574
 21
3.3699919045525442
 31
0.0
 12
7.4296857688544549
 22
3.4479919045525431
 32
0.0
 13
7.4296857688544549
 23
3.4479919045525431
 33
0.0
  0
INSERT
  5
3A1
  8
0
  2
*U46
 10
0.0
 20
0.0
 30
0.0
  0
POINT
  5
3A2
  8
DEFPOINTS
  6
CONTINUOUS
 62
     0
 10
5.2560440365544574
 20
1.9567700500525429
 30
0.0
  0
POINT
  5
3A3
  8
DEFPOINTS
  6
CONTINUOUS
 62
     0
 10
5.2560440365544574
 20
3.4479919045525431
 30
0.0
  0
POINT
  5
3A4
  8
DEFPOINTS
  6
CONTINUOUS
 62
     0
 10
7.4296857688544549
 20
3.4479919045525431
 30
0.0
  0
ENDBLK
  5
31A
  8
0
  0
BLOCK
  8
0
  2
*U46
 70
     1
 10
0.0
 20
0.0
 30
0.0
  3
*U46
  1

  0
TEXT
  5
496
  8
0
 62
     0
 10
7.2796857688544563
 20
2.6523809773525442
 30
0.0
 40
0.1
  1
5.965
 41
0.75
  7
SLDTEXTSTYLE2
  0
ENDBLK
  5
498
  8
0
  0
BLOCK
  8
0
  2
*D47
 70
     1
 10
0.0
 20
0.0
 30
0.0
  3
*D47
  1

  0
LINE
  5
3A5
  8
0
  6
CONTINUOUS
 62
     0
 10
6.5635440365544557
 20
3.3461309773525438
 30
0.0
 11
6.5635440365544557
 21
3.9135817647525442
 31
0.0
  0
LINE
  5
3A6
  8
0
  6
CONTINUOUS
 62
     0
 10
2.3235440365544551
 20
3.3461309773525438
 30
0.0
 11
2.3235440365544551
 21
3.9135817647525442
 31
0.0
  0
LINE
  5
3A7
  8
0
  6
CONTINUOUS
 62
     0
 10
6.4855440365544572
 20
3.9135817647525442
 30
0.0
 11
4.637294036554457
 21
3.9135817647525442
 31
0.0
  0
LINE
  5
3A8
  8
0
  6
CONTINUOUS
 62
     0
 10
2.4015440365544549
 20
3.9135817647525442
 30
0.0
 11
4.249794036554456
 21
3.9135817647525442
 31
0.0
  0
SOLID
  5
3A9
  8
0
  6
CONTINUOUS
 62
     0
 10
6.4855440365544572
 20
3.9265817647525441
 30
0.0
 11
6.4855440365544572
 21
3.9005817647525429
 31
0.0
 12
6.5635440365544557
 22
3.9135817647525442
 32
0.0
 13
6.5635440365544557
 23
3.9135817647525442
 33
0.0
  0
SOLID
  5
3AA
  8
0
  6
CONTINUOUS
 62
     0
 10
2.4015440365544549
 20
3.9265817647525441
 30
0.0
 11
2.4015440365544549
 21
3.9005817647525429
 31
0.0
 12
2.3235440365544551
 22
3.9135817647525442
 32
0.0
 13
2.3235440365544551
 23
3.9135817647525442
 33
0.0
  0
INSERT
  5
3AB
  8
0
  2
*U48
 10
0.0
 20
0.0
 30
0.0
  0
POINT
  5
3AC
  8
DEFPOINTS
  6
CONTINUOUS
 62
     0
 10
6.5635440365544557
 20
3.2836309773525438
 30
0.0
  0
POINT
  5
3AD
  8
DEFPOINTS
  6
CONTINUOUS
 62
     0
 10
2.3235440365544551
 20
3.2836309773525438
 30
0.0
  0
POINT
  5
3AE
  8
DEFPOINTS
  6
CONTINUOUS
 62
     0
 10
2.3235440365544551
 20
3.9135817647525442
 30
0.0
  0
ENDBLK
  5
327
  8
0
  0
BLOCK
  8
0
  2
*U48
 70
     1
 10
0.0
 20
0.0
 30
0.0
  3
*U48
  1

  0
TEXT
  5
49A
  8
0
 62
     0
 10
4.2747940365544572
 20
3.863581764752543
 30
0.0
 40
0.1
  1
16.960
 41
0.75
  7
SLDTEXTSTYLE2
  0
ENDBLK
  5
49C
  8
0
  0
BLOCK
  8
0
  2
*D49
 70
     1
 10
0.0
 20
0.0
 30
0.0
  3
*D49
  1

  0
LINE
  5
3AF
  8
0
  6
CONTINUOUS
 62
     0
 10
2.497294036554456
 20
3.5198809773525439
 30
0.0
 11
1.9298432491544559
 21
3.5198809773525439
 31
0.0
  0
LINE
  5
3B0
  8
0
  6
CONTINUOUS
 62
     0
 10
2.497294036554456
 20
1.884880977352543
 30
0.0
 11
1.929843249154455
 21
1.884880977352543
 31
0.0
  0
LINE
  5
3B1
  8
0
  6
CONTINUOUS
 62
     0
 10
1.9298432491544559
 20
3.4418809773525441
 30
0.0
 11
1.9298432491544559
 21
2.7773809773525442
 31
0.0
  0
LINE
  5
3B2
  8
0
  6
CONTINUOUS
 62
     0
 10
1.929843249154455
 20
1.9628809773525431
 30
0.0
 11
1.9298432491544559
 21
2.6273809773525429
 31
0.0
  0
SOLID
  5
3B3
  8
0
  6
CONTINUOUS
 62
     0
 10
1.916843249154456
 20
3.4418809773525441
 30
0.0
 11
1.9428432491544561
 21
3.4418809773525441
 31
0.0
 12
1.9298432491544559
 22
3.5198809773525439
 32
0.0
 13
1.9298432491544559
 23
3.5198809773525439
 33
0.0
  0
SOLID
  5
3B4
  8
0
  6
CONTINUOUS
 62
     0
 10
1.916843249154456
 20
1.9628809773525431
 30
0.0
 11
1.9428432491544561
 21
1.9628809773525431
 31
0.0
 12
1.929843249154455
 22
1.884880977352543
 32
0.0
 13
1.929843249154455
 23
1.884880977352543
 33
0.0
  0
INSERT
  5
3B5
  8
0
  2
*U50
 10
0.0
 20
0.0
 30
0.0
  0
POINT
  5
3B6
  8
DEFPOINTS
  6
CONTINUOUS
 62
     0
 10
2.559794036554456
 20
3.5198809773525439
 30
0.0
  0
POINT
  5
3B7
  8
DEFPOINTS
  6
CONTINUOUS
 62
     0
 10
2.559794036554456
 20
1.884880977352543
 30
0.0
  0
POINT
  5
3B8
  8
DEFPOINTS
  6
CONTINUOUS
 62
     0
 10
1.929843249154455
 20
1.884880977352543
 30
0.0
  0
ENDBLK
  5
334
  8
0
  0
BLOCK
  8
0
  2
*U50
 70
     1
 10
0.0
 20
0.0
 30
0.0
  3
*U50
  1

  0
TEXT
  5
49E
  8
0
 62
     0
 10
1.7860932491544561
 20
2.6523809773525442
 30
0.0
 40
0.1
  1
6.540
 41
0.75
  7
SLDTEXTSTYLE2
  0
ENDBLK
  5
4A0
  8
0
  0
BLOCK
  8
0
  2
*D51
 70
     1
 10
0.0
 20
0.0
 30
0.0
  3
*D51
  1

  0
LINE
  5
3B9
  8
0
  6
CONTINUOUS
 62
     0
 10
2.1123627178544551
 20
1.7106018381525441
 30
0.0
 11
2.2071543914344511
 21
1.7106018381525441
 31
0.0
  0
LINE
  5
3BA
  8
0
  6
CONTINUOUS
 62
     0
 10
2.2071543914344511
 20
1.7106018381525441
 30
0.0
 11
2.355029392595934
 21
1.8827520707656791
 31
0.0
  0
INSERT
  5
3BB
  8
0
  2
*U52
 10
0.0
 20
0.0
 30
0.0
  0
SOLID
  5
3BC
  8
0
  6
CONTINUOUS
 62
     0
 10
2.345168053581455
 20
1.891222843625433
 30
0.0
 11
2.36489073161041
 21
1.874281297905924
 31
0.0
 12
2.4058540297544551
 22
1.9419201048525441
 32
0.0
 13
2.4058540297544551
 23
1.9419201048525441
 33
0.0
  0
POINT
  5
3BD
  8
DEFPOINTS
  6
CONTINUOUS
 62
     0
 10
2.4058540297544551
 20
1.9419201048525441
 30
0.0
  0
POINT
  5
3BE
  8
DEFPOINTS
  6
CONTINUOUS
 62
     0
 10
2.559794036554456
 20
2.1211309773525442
 30
0.0
  0
ENDBLK
  5
341
  8
0
  0
BLOCK
  8
0
  2
*U52
 70
     1
 10
0.0
 20
0.0
 30
0.0
  3
*U52
  1

  0
TEXT
  5
4A2
  8
0
 62
     0
 10
1.7873627178544551
 20
1.6606018381525429
 30
0.0
 40
0.1
  1
R.945
 41
0.75
  7
SLDTEXTSTYLE2
  0
ENDBLK
  5
4A4
  8
0
  0
BLOCK
  8
0
  2
*D53
 70
     1
 10
0.0
 20
0.0
 30
0.0
  3
*D53
  1

  0
LINE
  5
3BF
  8
0
  6
CONTINUOUS
 62
     0
 10
3.889516031854455
 20
2.5795835502525439
 30
0.0
 11
3.758137533281626
 21
2.5795835502525439
 31
0.0
  0
LINE
  5
3C0
  8
0
  6
CONTINUOUS
 62
     0
 10
3.758137533281626
 20
2.5795835502525439
 30
0.0
 11
3.654937218705943
 21
2.0738570512751791
 31
0.0
  0
INSERT
  5
3C1
  8
0
  2
*U54
 10
0.0
 20
0.0
 30
0.0
  0
SOLID
  5
3C2
  8
0
  6
CONTINUOUS
 62
     0
 10
3.6421997206688381
 20
2.0764563095837598
 30
0.0
 11
3.6676747167430479
 21
2.0712577929665992
 31
0.0
 12
3.6393416688544571
 22
1.9974320630525439
 32
0.0
 13
3.6393416688544571
 23
1.9974320630525439
 33
0.0
  0
POINT
  5
3C3
  8
DEFPOINTS
  6
CONTINUOUS
 62
     0
 10
3.6393416688544571
 20
1.9974320630525439
 30
0.0
  0
POINT
  5
3C4
  8
DEFPOINTS
  6
CONTINUOUS
 62
     0
 10
3.6227464042544568
 20
1.916108037052545
 30
0.0
  0
ENDBLK
  5
34B
  8
0
  0
BLOCK
  8
0
  2
*U54
 70
     1
 10
0.0
 20
0.0
 30
0.0
  3
*U54
  1

  0
TEXT
  5
4A6
  8
0
 62
     0
 10
3.914516031854455
 20
2.613639616831605
 30
0.0
 40
0.1
  1
8X \U+2205.332 THRU ALL
 41
0.75
  7
SLDTEXTSTYLE2
  0
TEXT
  5
4A7
  8
0
 62
     0
 10
3.9072722736415781
 20
2.4469729501649402
 30
0.0
 40
0.1
  1
w
 41
0.75
  7
SLDTEXTSTYLE2
  0
TEXT
  5
4A8
  8
0
 62
     0
 10
4.074913535139606
 20
2.4469729501649402
 30
0.0
 40
0.1
  1
\U+2205 .332 X 100°
 41
0.75
  7
SLDTEXTSTYLE2
  0
ENDBLK
  5
4AA
  8
0
  0
BLOCK
  8
0
  2
*D55
 70
     1
 10
0.0
 20
0.0
 30
0.0
  3
*D55
  1

  0
LINE
  5
3DE
  8
0
 62
     0
 10
0.3681719677786361
 20
3.7760567745862161
 30
0.0
 11
0.3681719677786364
 21
8.4683726715535226
 31
0.0
  0
LINE
  5
3DF
  8
0
 62
     0
 10
17.328171967778641
 20
3.7760567745862161
 30
0.0
 11
17.328171967778641
 21
8.4683726715535226
 31
0.0
  0
LINE
  5
3E0
  8
0
 62
     0
 10
0.5481719677786364
 20
8.2883726715535229
 30
0.0
 11
8.3233970700978723
 21
8.2883726715535229
 31
0.0
  0
LINE
  5
3E1
  8
0
 62
     0
 10
17.148171967778641
 20
8.2883726715535229
 30
0.0
 11
9.3729468654594008
 21
8.2883726715535229
 31
0.0
  0
SOLID
  5
3E2
  8
0
 62
     0
 10
0.5481719677786364
 20
8.318372671553524
 30
0.0
 11
0.5481719677786364
 21
8.2583726715535253
 31
0.0
 12
0.3681719677786364
 22
8.2883726715535229
 32
0.0
 13
0.3681719677786364
 23
8.2883726715535229
 33
0.0
  0
SOLID
  5
3E3
  8
0
 62
     0
 10
17.148171967778641
 20
8.318372671553524
 30
0.0
 11
17.148171967778641
 21
8.2583726715535253
 31
0.0
 12
17.328171967778641
 22
8.2883726715535229
 32
0.0
 13
17.328171967778641
 23
8.2883726715535229
 33
0.0
  0
INSERT
  5
3E4
  8
0
  2
*U56
 10
0.0
 20
0.0
 30
0.0
  0
POINT
  5
3E5
  8
DEFPOINTS
 62
     0
 10
0.3681719677786361
 20
3.7135567745862161
 30
0.0
  0
POINT
  5
3E6
  8
DEFPOINTS
 62
     0
 10
17.328171967778641
 20
3.7135567745862161
 30
0.0
  0
POINT
  5
3E7
  8
DEFPOINTS
 62
     0
 10
17.328171967778641
 20
8.2883726715535229
 30
0.0
  0
ENDBLK
  5
3D2
  8
0
  0
BLOCK
  8
0
  2
*U56
 70
     1
 10
0.0
 20
0.0
 30
0.0
  3
*U56
  1

  0
TEXT
  5
4AF
  8
0
 62
     0
 10
8.3860164425398889
 20
8.1999074600937671
 30
0.0
 40
0.18
  1
16.9600
  0
ENDBLK
  5
4B1
  8
0
  0
BLOCK
  8
0
  2
*D59
 70
     1
 10
0.0
 20
0.0
 30
0.0
  3
*D59
  1

  0
LINE
  5
5CE
  8
0
 62
     0
 10
0.379421967578633
 20
6.0710567745862161
 30
0.0
 11
0.3794219675786331
 21
8.0775429652177362
 31
0.0
  0
LINE
  5
5CF
  8
0
 62
     0
 10
17.316921967578629
 20
6.0710567745862161
 30
0.0
 11
17.316921967578629
 21
8.0775429652177362
 31
0.0
  0
LINE
  5
5D0
  8
0
 62
     0
 10
0.5594219675786332
 20
7.8975429652177382
 30
0.0
 11
8.2481719675786334
 21
7.8975429652177382
 31
0.0
  0
LINE
  5
5D1
  8
0
 62
     0
 10
17.13692196757863
 20
7.8975429652177382
 30
0.0
 11
9.4481719675786326
 21
7.8975429652177382
 31
0.0
  0
SOLID
  5
5D2
  8
0
 62
     0
 10
0.5594219675786332
 20
7.9275429652177376
 30
0.0
 11
0.5594219675786332
 21
7.8675429652177371
 31
0.0
 12
0.3794219675786331
 22
7.8975429652177382
 32
0.0
 13
0.3794219675786331
 23
7.8975429652177382
 33
0.0
  0
SOLID
  5
5D3
  8
0
 62
     0
 10
17.13692196757863
 20
7.9275429652177376
 30
0.0
 11
17.13692196757863
 21
7.8675429652177371
 31
0.0
 12
17.316921967578629
 22
7.8975429652177382
 32
0.0
 13
17.316921967578629
 23
7.8975429652177382
 33
0.0
  0
INSERT
  5
5D4
  8
0
  2
*U62
 10
0.0
 20
0.0
 30
0.0
  0
POINT
  5
5D5
  8
DEFPOINTS
 62
     0
 10
0.379421967578633
 20
6.0085567745862161
 30
0.0
  0
POINT
  5
5D6
  8
DEFPOINTS
 62
     0
 10
17.316921967578629
 20
6.0085567745862161
 30
0.0
  0
POINT
  5
5D7
  8
DEFPOINTS
 62
     0
 10
17.316921967578629
 20
7.8975429652177382
 30
0.0
  0
ENDBLK
  5
5CD
  8
0
  0
BLOCK
  8
0
  2
*D60
 70
     1
 10
0.0
 20
0.0
 30
0.0
  3
*D60
  1

  0
LINE
  5
5DC
  8
0
 62
     0
 10
16.455671967578631
 20
6.932306774586217
 30
0.0
 11
18.29412852892186
 21
6.9323067745862161
 31
0.0
  0
LINE
  5
5DD
  8
0
 62
     0
 10
16.455671967578631
 20
0.4948067745862153
 30
0.0
 11
18.29412852892186
 21
0.4948067745862148
 31
0.0
  0
LINE
  5
5DE
  8
0
 62
     0
 10
18.114128528921871
 20
6.7523067745862164
 30
0.0
 11
18.114128528921871
 21
3.893556774586215
 31
0.0
  0
LINE
  5
5DF
  8
0
 62
     0
 10
18.114128528921871
 20
0.6748067745862149
 30
0.0
 11
18.114128528921871
 21
3.5335567745862151
 31
0.0
  0
SOLID
  5
5E0
  8
0
 62
     0
 10
18.084128528921859
 20
6.7523067745862164
 30
0.0
 11
18.144128528921868
 21
6.7523067745862164
 31
0.0
 12
18.114128528921871
 22
6.9323067745862161
 32
0.0
 13
18.114128528921871
 23
6.9323067745862161
 33
0.0
  0
SOLID
  5
5E1
  8
0
 62
     0
 10
18.084128528921859
 20
0.6748067745862149
 30
0.0
 11
18.144128528921868
 21
0.6748067745862149
 31
0.0
 12
18.114128528921871
 22
0.4948067745862148
 32
0.0
 13
18.114128528921871
 23
0.4948067745862148
 33
0.0
  0
INSERT
  5
5E2
  8
0
  2
*U63
 10
0.0
 20
0.0
 30
0.0
  0
POINT
  5
5E3
  8
DEFPOINTS
 62
     0
 10
16.393171967578631
 20
6.932306774586217
 30
0.0
  0
POINT
  5
5E4
  8
DEFPOINTS
 62
     0
 10
16.393171967578631
 20
0.4948067745862153
 30
0.0
  0
POINT
  5
5E5
  8
DEFPOINTS
 62
     0
 10
18.114128528921871
 20
0.4948067745862148
 30
0.0
  0
ENDBLK
  5
5DB
  8
0
  0
BLOCK
  8
0
  2
*D61
 70
     1
 10
0.0
 20
0.0
 30
0.0
  3
*D61
  1

  0
LINE
  5
5EA
  8
0
 62
     0
 10
0.379421967578633
 20
6.0710567745862161
 30
0.0
 11
0.379421967578633
 21
7.169273022825954
 31
0.0
  0
LINE
  5
5EB
  8
0
 62
     0
 10
17.316921967578629
 20
6.0710567745862161
 30
0.0
 11
17.316921967578629
 21
7.169273022825954
 31
0.0
  0
LINE
  5
5EC
  8
0
 62
     0
 10
0.5594219675786331
 20
6.9892730228259552
 30
0.0
 11
8.2481719675786334
 21
6.9892730228259552
 31
0.0
  0
LINE
  5
5ED
  8
0
 62
     0
 10
17.13692196757863
 20
6.9892730228259552
 30
0.0
 11
9.4481719675786326
 21
6.9892730228259552
 31
0.0
  0
SOLID
  5
5EE
  8
0
 62
     0
 10
0.5594219675786331
 20
7.0192730228259554
 30
0.0
 11
0.5594219675786331
 21
6.9592730228259541
 31
0.0
 12
0.379421967578633
 22
6.9892730228259552
 32
0.0
 13
0.379421967578633
 23
6.9892730228259552
 33
0.0
  0
SOLID
  5
5EF
  8
0
 62
     0
 10
17.13692196757863
 20
7.0192730228259554
 30
0.0
 11
17.13692196757863
 21
6.9592730228259541
 31
0.0
 12
17.316921967578629
 22
6.9892730228259552
 32
0.0
 13
17.316921967578629
 23
6.9892730228259552
 33
0.0
  0
INSERT
  5
5F0
  8
0
  2
*U64
 10
0.0
 20
0.0
 30
0.0
  0
POINT
  5
5F1
  8
DEFPOINTS
 62
     0
 10
0.379421967578633
 20
6.0085567745862161
 30
0.0
  0
POINT
  5
5F2
  8
DEFPOINTS
 62
     0
 10
17.316921967578629
 20
6.0085567745862161
 30
0.0
  0
POINT
  5
5F3
  8
DEFPOINTS
 62
     0
 10
17.316921967578629
 20
6.9892730228259552
 30
0.0
  0
ENDBLK
  5
5E9
  8
0
  0
BLOCK
  8
0
  2
*U62
 70
     1
 10
0.0
 20
0.0
 30
0.0
  3
*U62
  1

  0
TEXT
  5
650
  8
0
 62
     0
 10
8.3381719675786332
 20
7.8075429652177384
 30
0.0
 40
0.18
  1
16.9375
  0
ENDBLK
  5
652
  8
0
  0
BLOCK
  8
0
  2
*U63
 70
     1
 10
0.0
 20
0.0
 30
0.0
  3
*U63
  1

  0
TEXT
  5
654
  8
0
 62
     0
 10
17.664128528921871
 20
3.6235567745862181
 30
0.0
 40
0.18
  1
6.4375
  0
ENDBLK
  5
656
  8
0
  0
BLOCK
  8
0
  2
*U64
 70
     1
 10
0.0
 20
0.0
 30
0.0
  3
*U64
  1

  0
TEXT
  5
658
  8
0
 62
     0
 10
8.3381719675786332
 20
6.8992730228259553
 30
0.0
 40
0.18
  1
16.9375
  0
ENDBLK
  5
65A
  8
0
  0
ENDSEC
  0
SECTION
  2
ENTITIES
  0
CIRCLE
  5
296
  8
0
 10
0.6557282585786393
 20
5.338556774586217
 30
0.0
 40
0.09675
  0
CIRCLE
  5
298
  8
0
 10
12.09817196777864
 20
6.6960004833862152
 30
0.0
 40
0.0967500000000036
  0
CIRCLE
  5
29A
  8
0
 10
5.598171967778633
 20
6.6960004833862152
 30
0.0
 40
0.0967500000000036
  0
CIRCLE
  5
2A8
  8
0
 10
5.598171967778633
 20
0.7311130653862171
 30
0.0
 40
0.09675
  0
CIRCLE
  5
2A9
  8
0
 10
17.040615676578621
 20
2.088556774586217
 30
0.0
 40
0.0967499999999964
  0
CIRCLE
  5
2AA
  8
0
 10
17.040615676578621
 20
5.338556774586217
 30
0.0
 40
0.09675
  0
CIRCLE
  5
2AB
  8
0
 10
12.09817196777864
 20
0.7311130653862171
 30
0.0
 40
0.09675
  0
CIRCLE
  5
2AC
  8
0
 10
0.6557282585786393
 20
2.088556774586217
 30
0.0
 40
0.0967499999999964
  0
POLYLINE
  5
5C7
  8
0
 66
     1
 10
0.0
 20
0.0
 30
0.0
 70
     1
  0
VERTEX
  5
646
  8
0
 10
17.316921967578629
 20
6.0085567745862161
 30
0.0
 42
0.4142135623730957
  0
VERTEX
  5
647
  8
0
 10
16.393171967578631
 20
6.932306774586217
 30
0.0
  0
VERTEX
  5
648
  8
0
 10
1.303171967578634
 20
6.932306774586217
 30
0.0
 42
0.4142135623730957
  0
VERTEX
  5
649
  8
0
 10
0.379421967578633
 20
6.0085567745862161
 30
0.0
  0
VERTEX
  5
64A
  8
0
 10
0.379421967578633
 20
1.4185567745862171
 30
0.0
 42
0.4142135623730959
  0
VERTEX
  5
64B
  8
0
 10
1.303171967578634
 20
0.4948067745862197
 30
0.0
  0
VERTEX
  5
64C
  8
0
 10
16.393171967578631
 20
0.4948067745862153
 30
0.0
 42
0.4142135623730951
  0
VERTEX
  5
64D
  8
0
 10
17.316921967578629
 20
1.4185567745862171
 30
0.0
  0
SEQEND
  5
64E
  8
0
  0
ENDSEC
  0
EOF
