ISO-10303-21;
HEADER;
FILE_DESCRIPTION (( 'STEP AP214' ),
    '1' );
FILE_NAME ('75.103.09.xx.step',
    '2023-08-31T12:55:04',
    ( '' ),
    ( '' ),
    'SwSTEP 2.0',
    'SolidWorks 2022',
    '' );
FILE_SCHEMA (( 'AUTOMOTIVE_DESIGN' ));
ENDSEC;

DATA;
#1 = SURFACE_STYLE_FILL_AREA ( #45 ) ;
#2 = FACE_OUTER_BOUND ( 'NONE', #125, .T. ) ;
#3 = CIRCLE ( 'NONE', #83, 0.5100000000000000089 ) ;
#4 = AXIS2_PLACEMENT_3D ( 'NONE', #240, #239, #118 ) ;
#5 = TOROIDAL_SURFACE ( 'NONE', #167, 0.5100000000000000089, 0.1500000000000003830 ) ;
#6 = ORIENTED_EDGE ( 'NONE', *, *, #143, .F. ) ;
#7 = EDGE_LOOP ( 'NONE', ( #23 ) ) ;
#8 = DIRECTION ( 'NONE',  ( -0.000000000000000000, -1.000000000000000000, -0.000000000000000000 ) ) ;
#9 =( GEOMETRIC_REPRESENTATION_CONTEXT ( 3 ) GLOBAL_UNCERTAINTY_ASSIGNED_CONTEXT ( ( #151 ) ) GLOBAL_UNIT_ASSIGNED_CONTEXT ( ( #52, #175, #252 ) ) REPRESENTATION_CONTEXT ( 'NONE', 'WORKASPACE' ) );
#10 = EDGE_CURVE ( 'NONE', #201, #201, #160, .T. ) ;
#11 = MECHANICAL_DESIGN_GEOMETRIC_PRESENTATION_REPRESENTATION (  '', ( #251 ), #29 ) ;
#12 = FACE_OUTER_BOUND ( 'NONE', #170, .T. ) ;
#13 = CARTESIAN_POINT ( 'NONE',  ( 0.000000000000000000, 0.000000000000000000, 0.000000000000000000 ) ) ;
#14 = ADVANCED_BREP_SHAPE_REPRESENTATION ( '75.103.09.xx', ( #50, #98 ), #225 ) ;
#15 = FACE_OUTER_BOUND ( 'NONE', #88, .T. ) ;
#16 = DIRECTION ( 'NONE',  ( -0.000000000000000000, -1.000000000000000000, -0.000000000000000000 ) ) ;
#17 = DIRECTION ( 'NONE',  ( 0.000000000000000000, 0.000000000000000000, -1.000000000000000000 ) ) ;
#18 = ADVANCED_FACE ( 'NONE', ( #230, #129 ), #67, .F. ) ;
#19 = CLOSED_SHELL ( 'NONE', ( #82, #209, #191, #18, #49, #30, #65, #233, #187, #215, #138 ) ) ;
#20 = VERTEX_POINT ( 'NONE', #122 ) ;
#21 = CYLINDRICAL_SURFACE ( 'NONE', #260, 0.5100000000000000089 ) ;
#22 = AXIS2_PLACEMENT_3D ( 'NONE', #13, #211, #71 ) ;
#23 = ORIENTED_EDGE ( 'NONE', *, *, #128, .T. ) ;
#24 =( NAMED_UNIT ( * ) SI_UNIT ( $, .STERADIAN. ) SOLID_ANGLE_UNIT ( ) );
#25 = ORIENTED_EDGE ( 'NONE', *, *, #177, .T. ) ;
#26 = DIRECTION ( 'NONE',  ( 0.000000000000000000, 0.000000000000000000, -1.000000000000000000 ) ) ;
#27 = EDGE_CURVE ( 'NONE', #135, #135, #226, .T. ) ;
#28 = ORIENTED_EDGE ( 'NONE', *, *, #27, .T. ) ;
#29 =( GEOMETRIC_REPRESENTATION_CONTEXT ( 3 ) GLOBAL_UNCERTAINTY_ASSIGNED_CONTEXT ( ( #124 ) ) GLOBAL_UNIT_ASSIGNED_CONTEXT ( ( #89, #242, #24 ) ) REPRESENTATION_CONTEXT ( 'NONE', 'WORKASPACE' ) );
#30 = ADVANCED_FACE ( 'NONE', ( #107, #123 ), #5, .F. ) ;
#31 = DIRECTION ( 'NONE',  ( -0.000000000000000000, -1.000000000000000000, -0.000000000000000000 ) ) ;
#32 = AXIS2_PLACEMENT_3D ( 'NONE', #73, #72, #53 ) ;
#33 = AXIS2_PLACEMENT_3D ( 'NONE', #189, #148, #206 ) ;
#34 = CARTESIAN_POINT ( 'NONE',  ( 0.000000000000000000, 25.39999999999999858, 0.000000000000000000 ) ) ;
#35 = FACE_BOUND ( 'NONE', #110, .T. ) ;
#36 = FACE_OUTER_BOUND ( 'NONE', #66, .T. ) ;
#37 = FACE_BOUND ( 'NONE', #91, .T. ) ;
#38 = PLANE ( 'NONE',  #141 ) ;
#39 = CIRCLE ( 'NONE', #108, 0.3200000000000003952 ) ;
#40 = VERTEX_POINT ( 'NONE', #119 ) ;
#41 = DIRECTION ( 'NONE',  ( -0.000000000000000000, -1.000000000000000000, -0.000000000000000000 ) ) ;
#42 = AXIS2_PLACEMENT_3D ( 'NONE', #152, #112, #195 ) ;
#43 = EDGE_LOOP ( 'NONE', ( #165 ) ) ;
#44 = ORIENTED_EDGE ( 'NONE', *, *, #113, .F. ) ;
#45 = FILL_AREA_STYLE ('',( #169 ) ) ;
#46 = EDGE_LOOP ( 'NONE', ( #207 ) ) ;
#47 = EDGE_LOOP ( 'NONE', ( #210 ) ) ;
#48 = COLOUR_RGB ( '',0.7254901960784313486, 0.6509803921568627638, 0.3843137254901960453 ) ;
#49 = ADVANCED_FACE ( 'NONE', ( #244, #2 ), #106, .T. ) ;
#50 = MANIFOLD_SOLID_BREP ( '75.103.09.xx', #19 ) ;
#51 = FACE_OUTER_BOUND ( 'NONE', #247, .T. ) ;
#52 =( LENGTH_UNIT ( ) NAMED_UNIT ( * ) SI_UNIT ( .MILLI., .METRE. ) );
#53 = DIRECTION ( 'NONE',  ( 0.000000000000000000, 0.000000000000000000, -1.000000000000000000 ) ) ;
#54 = DIRECTION ( 'NONE',  ( -0.000000000000000000, -1.000000000000000000, -0.000000000000000000 ) ) ;
#55 = VERTEX_POINT ( 'NONE', #78 ) ;
#56 = CIRCLE ( 'NONE', #32, 0.4500000000000001221 ) ;
#57 = CARTESIAN_POINT ( 'NONE',  ( 0.000000000000000000, 33.09999999999999432, 0.000000000000000000 ) ) ;
#58 = PRODUCT ( '75.103.09.xx', '75.103.09.xx', '', ( #62 ) ) ;
#59 = DIRECTION ( 'NONE',  ( -0.000000000000000000, -1.000000000000000000, -0.000000000000000000 ) ) ;
#60 = FACE_OUTER_BOUND ( 'NONE', #227, .T. ) ;
#61 = EDGE_LOOP ( 'NONE', ( #245 ) ) ;
#62 = PRODUCT_CONTEXT ( 'NONE', #257, 'mechanical' ) ;
#63 = EDGE_LOOP ( 'NONE', ( #44 ) ) ;
#64 = CIRCLE ( 'NONE', #213, 0.5100000000000000089 ) ;
#65 = ADVANCED_FACE ( 'NONE', ( #35, #51 ), #96, .T. ) ;
#66 = EDGE_LOOP ( 'NONE', ( #171 ) ) ;
#67 = TOROIDAL_SURFACE ( 'NONE', #246, 0.5100000000000000089, 0.1500000000000008271 ) ;
#68 = DIRECTION ( 'NONE',  ( 0.000000000000000000, 0.000000000000000000, 1.000000000000000000 ) ) ;
#69 = EDGE_LOOP ( 'NONE', ( #25 ) ) ;
#70 = ORIENTED_EDGE ( 'NONE', *, *, #237, .T. ) ;
#71 = DIRECTION ( 'NONE',  ( 0.000000000000000000, 0.000000000000000000, -1.000000000000000000 ) ) ;
#72 = DIRECTION ( 'NONE',  ( -0.000000000000000000, -1.000000000000000000, -0.000000000000000000 ) ) ;
#73 = CARTESIAN_POINT ( 'NONE',  ( 0.000000000000000000, 31.79999999999999361, 0.000000000000000000 ) ) ;
#74 = DIRECTION ( 'NONE',  ( 0.000000000000000000, -1.000000000000000000, -0.000000000000000000 ) ) ;
#75 = PRODUCT_DEFINITION_FORMATION_WITH_SPECIFIED_SOURCE ( 'ANY', '', #58, .NOT_KNOWN. ) ;
#76 = CYLINDRICAL_SURFACE ( 'NONE', #132, 0.3200000000000003952 ) ;
#77 = PLANE ( 'NONE',  #4 ) ;
#78 = CARTESIAN_POINT ( 'NONE',  ( 0.000000000000000000, 31.79999999999999361, -0.3199999999999999512 ) ) ;
#79 =( NAMED_UNIT ( * ) SI_UNIT ( $, .STERADIAN. ) SOLID_ANGLE_UNIT ( ) );
#80 = DIRECTION ( 'NONE',  ( 0.000000000000000000, 1.000000000000000000, 0.000000000000000000 ) ) ;
#81 =( LENGTH_UNIT ( ) NAMED_UNIT ( * ) SI_UNIT ( .MILLI., .METRE. ) );
#82 = ADVANCED_FACE ( 'NONE', ( #15 ), #133, .T. ) ;
#83 = AXIS2_PLACEMENT_3D ( 'NONE', #231, #31, #254 ) ;
#84 = CIRCLE ( 'NONE', #208, 0.2100000000000000755 ) ;
#85 = CARTESIAN_POINT ( 'NONE',  ( 0.000000000000000000, 0.000000000000000000, 0.000000000000000000 ) ) ;
#86 = ORIENTED_EDGE ( 'NONE', *, *, #163, .F. ) ;
#87 = APPLICATION_PROTOCOL_DEFINITION ( 'draft international standard', 'automotive_design', 1998, #192 ) ;
#88 = EDGE_LOOP ( 'NONE', ( #70 ) ) ;
#89 =( LENGTH_UNIT ( ) NAMED_UNIT ( * ) SI_UNIT ( .MILLI., .METRE. ) );
#90 = DIRECTION ( 'NONE',  ( -0.000000000000000000, -1.000000000000000000, -0.000000000000000000 ) ) ;
#91 = EDGE_LOOP ( 'NONE', ( #86 ) ) ;
#92 = ORIENTED_EDGE ( 'NONE', *, *, #177, .F. ) ;
#93 = FACE_OUTER_BOUND ( 'NONE', #47, .T. ) ;
#94 = CARTESIAN_POINT ( 'NONE',  ( 0.000000000000000000, 25.39999999999999858, 0.000000000000000000 ) ) ;
#95 = SURFACE_STYLE_FILL_AREA ( #214 ) ;
#96 = PLANE ( 'NONE',  #234 ) ;
#97 = CIRCLE ( 'NONE', #159, 0.3199999999999999512 ) ;
#98 = AXIS2_PLACEMENT_3D ( 'NONE', #85, #68, #259 ) ;
#99 = FACE_OUTER_BOUND ( 'NONE', #166, .T. ) ;
#100 = FACE_OUTER_BOUND ( 'NONE', #7, .T. ) ;
#101 = CARTESIAN_POINT ( 'NONE',  ( 0.000000000000000000, 0.2999999999999999889, 0.000000000000000000 ) ) ;
#102 = CARTESIAN_POINT ( 'NONE',  ( 0.000000000000000000, 24.39999999999999858, -0.5100000000000000089 ) ) ;
#103 = AXIS2_PLACEMENT_3D ( 'NONE', #156, #74, #116 ) ;
#104 = PRODUCT_DEFINITION_CONTEXT ( 'detailed design', #192, 'design' ) ;
#105 = DIRECTION ( 'NONE',  ( 0.000000000000000000, 0.000000000000000000, -1.000000000000000000 ) ) ;
#106 = CYLINDRICAL_SURFACE ( 'NONE', #22, 0.5100000000000000089 ) ;
#107 = FACE_OUTER_BOUND ( 'NONE', #69, .T. ) ;
#108 = AXIS2_PLACEMENT_3D ( 'NONE', #212, #173, #250 ) ;
#109 = SHAPE_DEFINITION_REPRESENTATION ( #249, #14 ) ;
#110 = EDGE_LOOP ( 'NONE', ( #6 ) ) ;
#111 = CARTESIAN_POINT ( 'NONE',  ( 0.000000000000000000, 24.69999999999999929, 0.000000000000000000 ) ) ;
#112 = DIRECTION ( 'NONE',  ( -0.000000000000000000, -1.000000000000000000, -0.000000000000000000 ) ) ;
#113 = EDGE_CURVE ( 'NONE', #121, #121, #3, .T. ) ;
#114 = DIRECTION ( 'NONE',  ( -0.000000000000000000, -1.000000000000000000, -0.000000000000000000 ) ) ;
#115 = FACE_OUTER_BOUND ( 'NONE', #46, .T. ) ;
#116 = DIRECTION ( 'NONE',  ( 0.000000000000000000, 0.000000000000000000, -1.000000000000000000 ) ) ;
#117 = TOROIDAL_SURFACE ( 'NONE', #149, 0.2100000000000000755, 0.2999999999999999889 ) ;
#118 = DIRECTION ( 'NONE',  ( 0.000000000000000000, 0.000000000000000000, -1.000000000000000000 ) ) ;
#119 = CARTESIAN_POINT ( 'NONE',  ( 0.000000000000000000, 25.39999999999999858, -0.3599999999999996536 ) ) ;
#120 = VERTEX_POINT ( 'NONE', #161 ) ;
#121 = VERTEX_POINT ( 'NONE', #102 ) ;
#122 = CARTESIAN_POINT ( 'NONE',  ( 0.000000000000000000, 0.3000000000000000444, -0.5100000000000000089 ) ) ;
#123 = FACE_OUTER_BOUND ( 'NONE', #43, .T. ) ;
#124 = UNCERTAINTY_MEASURE_WITH_UNIT (LENGTH_MEASURE( 1.000000000000000082E-05 ), #89, 'distance_accuracy_value', 'NONE');
#125 = EDGE_LOOP ( 'NONE', ( #190 ) ) ;
#126 = ORIENTED_EDGE ( 'NONE', *, *, #256, .F. ) ;
#127 = ORIENTED_EDGE ( 'NONE', *, *, #10, .T. ) ;
#128 = EDGE_CURVE ( 'NONE', #120, #120, #56, .T. ) ;
#129 = FACE_OUTER_BOUND ( 'NONE', #63, .T. ) ;
#130 = FILL_AREA_STYLE_COLOUR ( '', #221 ) ;
#131 = DIRECTION ( 'NONE',  ( 0.000000000000000000, 1.000000000000000000, 0.000000000000000000 ) ) ;
#132 = AXIS2_PLACEMENT_3D ( 'NONE', #154, #8, #232 ) ;
#133 = PLANE ( 'NONE',  #103 ) ;
#134 = DIRECTION ( 'NONE',  ( 0.000000000000000000, 0.000000000000000000, -1.000000000000000000 ) ) ;
#135 = VERTEX_POINT ( 'NONE', #241 ) ;
#136 = PRESENTATION_LAYER_ASSIGNMENT (  '', '', ( #251 ) ) ;
#137 = CARTESIAN_POINT ( 'NONE',  ( 0.000000000000000000, 0.000000000000000000, 0.000000000000000000 ) ) ;
#138 = ADVANCED_FACE ( 'NONE', ( #153, #93 ), #76, .T. ) ;
#139 = DIRECTION ( 'NONE',  ( -0.000000000000000000, -1.000000000000000000, -0.000000000000000000 ) ) ;
#140 = PRESENTATION_LAYER_ASSIGNMENT (  '', '', ( #172 ) ) ;
#141 = AXIS2_PLACEMENT_3D ( 'NONE', #57, #80, #184 ) ;
#142 = APPLICATION_PROTOCOL_DEFINITION ( 'draft international standard', 'automotive_design', 1998, #257 ) ;
#143 = EDGE_CURVE ( 'NONE', #238, #238, #39, .T. ) ;
#144 = ORIENTED_EDGE ( 'NONE', *, *, #256, .T. ) ;
#145 = DIRECTION ( 'NONE',  ( -0.000000000000000000, -1.000000000000000000, -0.000000000000000000 ) ) ;
#146 = EDGE_LOOP ( 'NONE', ( #203 ) ) ;
#147 = EDGE_LOOP ( 'NONE', ( #204 ) ) ;
#148 = DIRECTION ( 'NONE',  ( -0.000000000000000000, -1.000000000000000000, -0.000000000000000000 ) ) ;
#149 = AXIS2_PLACEMENT_3D ( 'NONE', #101, #59, #179 ) ;
#150 = SURFACE_STYLE_USAGE ( .BOTH. , #174 ) ;
#151 = UNCERTAINTY_MEASURE_WITH_UNIT (LENGTH_MEASURE( 1.000000000000000082E-05 ), #52, 'distance_accuracy_value', 'NONE');
#152 = CARTESIAN_POINT ( 'NONE',  ( 0.000000000000000000, 25.39999999999999858, 0.000000000000000000 ) ) ;
#153 = FACE_OUTER_BOUND ( 'NONE', #147, .T. ) ;
#154 = CARTESIAN_POINT ( 'NONE',  ( 0.000000000000000000, 25.39999999999999858, 0.000000000000000000 ) ) ;
#155 = AXIS2_PLACEMENT_3D ( 'NONE', #111, #41, #26 ) ;
#156 = CARTESIAN_POINT ( 'NONE',  ( 0.000000000000000000, 0.000000000000000000, 0.000000000000000000 ) ) ;
#157 = DIRECTION ( 'NONE',  ( 0.000000000000000000, 0.000000000000000000, -1.000000000000000000 ) ) ;
#158 = FACE_OUTER_BOUND ( 'NONE', #146, .T. ) ;
#159 = AXIS2_PLACEMENT_3D ( 'NONE', #198, #114, #216 ) ;
#160 = CIRCLE ( 'NONE', #33, 0.5100000000000000089 ) ;
#161 = CARTESIAN_POINT ( 'NONE',  ( 0.000000000000000000, 31.79999999999999361, -0.4500000000000001221 ) ) ;
#162 = AXIS2_PLACEMENT_3D ( 'NONE', #34, #217, #196 ) ;
#163 = EDGE_CURVE ( 'NONE', #55, #55, #97, .T. ) ;
#164 = AXIS2_PLACEMENT_3D ( 'NONE', #178, #202, #17 ) ;
#165 = ORIENTED_EDGE ( 'NONE', *, *, #10, .F. ) ;
#166 = EDGE_LOOP ( 'NONE', ( #126 ) ) ;
#167 = AXIS2_PLACEMENT_3D ( 'NONE', #188, #145, #224 ) ;
#168 = PRODUCT_DEFINITION ( 'UNKNOWN', '', #75, #104 ) ;
#169 = FILL_AREA_STYLE_COLOUR ( '', #48 ) ;
#170 = EDGE_LOOP ( 'NONE', ( #144 ) ) ;
#171 = ORIENTED_EDGE ( 'NONE', *, *, #180, .F. ) ;
#172 = STYLED_ITEM ( 'NONE', ( #193 ), #50 ) ;
#173 = DIRECTION ( 'NONE',  ( 0.000000000000000000, 1.000000000000000000, 0.000000000000000000 ) ) ;
#174 = SURFACE_SIDE_STYLE ('',( #95 ) ) ;
#175 =( NAMED_UNIT ( * ) PLANE_ANGLE_UNIT ( ) SI_UNIT ( $, .RADIAN. ) );
#176 = MECHANICAL_DESIGN_GEOMETRIC_PRESENTATION_REPRESENTATION (  '', ( #172 ), #9 ) ;
#177 = EDGE_CURVE ( 'NONE', #40, #40, #182, .T. ) ;
#178 = CARTESIAN_POINT ( 'NONE',  ( 0.000000000000000000, 33.09999999999999432, 0.000000000000000000 ) ) ;
#179 = DIRECTION ( 'NONE',  ( 0.000000000000000000, 0.000000000000000000, -1.000000000000000000 ) ) ;
#180 = EDGE_CURVE ( 'NONE', #20, #20, #64, .T. ) ;
#181 = CARTESIAN_POINT ( 'NONE',  ( 0.000000000000000000, 33.09999999999999432, -0.4500000000000000111 ) ) ;
#182 = CIRCLE ( 'NONE', #42, 0.3599999999999996536 ) ;
#183 = CARTESIAN_POINT ( 'NONE',  ( 0.000000000000000000, 25.24999999999999645, -0.5100000000000000089 ) ) ;
#184 = DIRECTION ( 'NONE',  ( 0.000000000000000000, -0.000000000000000000, 1.000000000000000000 ) ) ;
#185 = PRESENTATION_STYLE_ASSIGNMENT (( #222 ) ) ;
#186 = EDGE_LOOP ( 'NONE', ( #127 ) ) ;
#187 = ADVANCED_FACE ( 'NONE', ( #12, #115 ), #197, .T. ) ;
#188 = CARTESIAN_POINT ( 'NONE',  ( 0.000000000000000000, 25.39999999999999858, 0.000000000000000000 ) ) ;
#189 = CARTESIAN_POINT ( 'NONE',  ( 0.000000000000000000, 25.24999999999999645, 0.000000000000000000 ) ) ;
#190 = ORIENTED_EDGE ( 'NONE', *, *, #27, .F. ) ;
#191 = ADVANCED_FACE ( 'NONE', ( #235, #36 ), #21, .T. ) ;
#192 = APPLICATION_CONTEXT ( 'automotive_design' ) ;
#193 = PRESENTATION_STYLE_ASSIGNMENT (( #150 ) ) ;
#194 = CIRCLE ( 'NONE', #164, 0.4500000000000000111 ) ;
#195 = DIRECTION ( 'NONE',  ( 0.000000000000000000, 0.000000000000000000, -1.000000000000000000 ) ) ;
#196 = DIRECTION ( 'NONE',  ( 0.000000000000000000, 0.000000000000000000, -1.000000000000000000 ) ) ;
#197 = CYLINDRICAL_SURFACE ( 'NONE', #162, 0.4500000000000000666 ) ;
#198 = CARTESIAN_POINT ( 'NONE',  ( 0.000000000000000000, 31.79999999999999361, 0.000000000000000000 ) ) ;
#199 = CARTESIAN_POINT ( 'NONE',  ( 0.000000000000000000, 25.39999999999999858, 0.3200000000000003952 ) ) ;
#200 = CARTESIAN_POINT ( 'NONE',  ( 0.000000000000000000, 0.000000000000000000, 0.000000000000000000 ) ) ;
#201 = VERTEX_POINT ( 'NONE', #183 ) ;
#202 = DIRECTION ( 'NONE',  ( -0.000000000000000000, -1.000000000000000000, -0.000000000000000000 ) ) ;
#203 = ORIENTED_EDGE ( 'NONE', *, *, #180, .T. ) ;
#204 = ORIENTED_EDGE ( 'NONE', *, *, #163, .T. ) ;
#205 = PRODUCT_RELATED_PRODUCT_CATEGORY ( 'part', '', ( #58 ) ) ;
#206 = DIRECTION ( 'NONE',  ( 0.000000000000000000, 0.000000000000000000, -1.000000000000000000 ) ) ;
#207 = ORIENTED_EDGE ( 'NONE', *, *, #128, .F. ) ;
#208 = AXIS2_PLACEMENT_3D ( 'NONE', #137, #139, #157 ) ;
#209 = ADVANCED_FACE ( 'NONE', ( #158, #60 ), #117, .T. ) ;
#210 = ORIENTED_EDGE ( 'NONE', *, *, #143, .T. ) ;
#211 = DIRECTION ( 'NONE',  ( -0.000000000000000000, -1.000000000000000000, -0.000000000000000000 ) ) ;
#212 = CARTESIAN_POINT ( 'NONE',  ( 0.000000000000000000, 25.39999999999999858, 0.000000000000000000 ) ) ;
#213 = AXIS2_PLACEMENT_3D ( 'NONE', #236, #54, #134 ) ;
#214 = FILL_AREA_STYLE ('',( #130 ) ) ;
#215 = ADVANCED_FACE ( 'NONE', ( #100, #37 ), #77, .T. ) ;
#216 = DIRECTION ( 'NONE',  ( 0.000000000000000000, 0.000000000000000000, -1.000000000000000000 ) ) ;
#217 = DIRECTION ( 'NONE',  ( -0.000000000000000000, -1.000000000000000000, -0.000000000000000000 ) ) ;
#218 = VERTEX_POINT ( 'NONE', #181 ) ;
#219 = DIRECTION ( 'NONE',  ( 0.000000000000000000, 0.000000000000000000, -1.000000000000000000 ) ) ;
#220 = VERTEX_POINT ( 'NONE', #258 ) ;
#221 = COLOUR_RGB ( '',0.7254901960784313486, 0.6509803921568627638, 0.3843137254901960453 ) ;
#222 = SURFACE_STYLE_USAGE ( .BOTH. , #229 ) ;
#223 = CARTESIAN_POINT ( 'NONE',  ( 0.000000000000000000, 24.54999999999999716, 0.000000000000000000 ) ) ;
#224 = DIRECTION ( 'NONE',  ( 0.000000000000000000, 0.000000000000000000, -1.000000000000000000 ) ) ;
#225 =( GEOMETRIC_REPRESENTATION_CONTEXT ( 3 ) GLOBAL_UNCERTAINTY_ASSIGNED_CONTEXT ( ( #243 ) ) GLOBAL_UNIT_ASSIGNED_CONTEXT ( ( #81, #255, #79 ) ) REPRESENTATION_CONTEXT ( 'NONE', 'WORKASPACE' ) );
#226 = CIRCLE ( 'NONE', #155, 0.5100000000000000089 ) ;
#227 = EDGE_LOOP ( 'NONE', ( #248 ) ) ;
#228 = EDGE_LOOP ( 'NONE', ( #28 ) ) ;
#229 = SURFACE_SIDE_STYLE ('',( #1 ) ) ;
#230 = FACE_OUTER_BOUND ( 'NONE', #228, .T. ) ;
#231 = CARTESIAN_POINT ( 'NONE',  ( 0.000000000000000000, 24.39999999999999858, 0.000000000000000000 ) ) ;
#232 = DIRECTION ( 'NONE',  ( 0.000000000000000000, 0.000000000000000000, -1.000000000000000000 ) ) ;
#233 = ADVANCED_FACE ( 'NONE', ( #99 ), #38, .T. ) ;
#234 = AXIS2_PLACEMENT_3D ( 'NONE', #94, #131, #253 ) ;
#235 = FACE_OUTER_BOUND ( 'NONE', #61, .T. ) ;
#236 = CARTESIAN_POINT ( 'NONE',  ( 0.000000000000000000, 0.3000000000000000444, 0.000000000000000000 ) ) ;
#237 = EDGE_CURVE ( 'NONE', #220, #220, #84, .T. ) ;
#238 = VERTEX_POINT ( 'NONE', #199 ) ;
#239 = DIRECTION ( 'NONE',  ( 0.000000000000000000, -1.000000000000000000, -0.000000000000000000 ) ) ;
#240 = CARTESIAN_POINT ( 'NONE',  ( 0.4500000000000001221, 31.79999999999999361, 0.000000000000000000 ) ) ;
#241 = CARTESIAN_POINT ( 'NONE',  ( 0.000000000000000000, 24.69999999999999929, -0.5100000000000000089 ) ) ;
#242 =( NAMED_UNIT ( * ) PLANE_ANGLE_UNIT ( ) SI_UNIT ( $, .RADIAN. ) );
#243 = UNCERTAINTY_MEASURE_WITH_UNIT (LENGTH_MEASURE( 1.000000000000000082E-05 ), #81, 'distance_accuracy_value', 'NONE');
#244 = FACE_OUTER_BOUND ( 'NONE', #186, .T. ) ;
#245 = ORIENTED_EDGE ( 'NONE', *, *, #113, .T. ) ;
#246 = AXIS2_PLACEMENT_3D ( 'NONE', #223, #90, #105 ) ;
#247 = EDGE_LOOP ( 'NONE', ( #92 ) ) ;
#248 = ORIENTED_EDGE ( 'NONE', *, *, #237, .F. ) ;
#249 = PRODUCT_DEFINITION_SHAPE ( 'NONE', 'NONE',  #168 ) ;
#250 = DIRECTION ( 'NONE',  ( 0.000000000000000000, 0.000000000000000000, 1.000000000000000000 ) ) ;
#251 = STYLED_ITEM ( 'NONE', ( #185 ), #14 ) ;
#252 =( NAMED_UNIT ( * ) SI_UNIT ( $, .STERADIAN. ) SOLID_ANGLE_UNIT ( ) );
#253 = DIRECTION ( 'NONE',  ( 0.000000000000000000, -0.000000000000000000, 1.000000000000000000 ) ) ;
#254 = DIRECTION ( 'NONE',  ( 0.000000000000000000, 0.000000000000000000, -1.000000000000000000 ) ) ;
#255 =( NAMED_UNIT ( * ) PLANE_ANGLE_UNIT ( ) SI_UNIT ( $, .RADIAN. ) );
#256 = EDGE_CURVE ( 'NONE', #218, #218, #194, .T. ) ;
#257 = APPLICATION_CONTEXT ( 'automotive_design' ) ;
#258 = CARTESIAN_POINT ( 'NONE',  ( 0.000000000000000000, 0.000000000000000000, -0.2100000000000000755 ) ) ;
#259 = DIRECTION ( 'NONE',  ( 1.000000000000000000, 0.000000000000000000, 0.000000000000000000 ) ) ;
#260 = AXIS2_PLACEMENT_3D ( 'NONE', #200, #16, #219 ) ;
ENDSEC;
END-ISO-10303-21;
