ISO-10303-21;
HEADER;
FILE_DESCRIPTION (( 'STEP AP214' ),
    '1' );
FILE_NAME ('FK-508.STEP',
    '2024-02-05T23:24:59',
    ( '' ),
    ( '' ),
    'SwSTEP 2.0',
    'SolidWorks 2022',
    '' );
FILE_SCHEMA (( 'AUTOMOTIVE_DESIGN' ));
ENDSEC;

DATA;
#1 = AXIS2_PLACEMENT_3D ( 'NONE', #191, #163, #306 ) ;
#2 = AXIS2_PLACEMENT_3D ( 'NONE', #13, #155, #242 ) ;
#3 = DIRECTION ( 'NONE',  ( 1.000000000000000000, 0.000000000000000000, 0.000000000000000000 ) ) ;
#4 = DIRECTION ( 'NONE',  ( 1.000000000000000000, 0.000000000000000000, 0.000000000000000000 ) ) ;
#5 = EDGE_CURVE ( 'NONE', #7, #7, #233, .T. ) ;
#6 = CARTESIAN_POINT ( 'NONE',  ( 0.000000000000000000, 0.000000000000000000, 12.90000000000000036 ) ) ;
#7 = VERTEX_POINT ( 'NONE', #125 ) ;
#8 = AXIS2_PLACEMENT_3D ( 'NONE', #225, #135, #341 ) ;
#9 = ORIENTED_EDGE ( 'NONE', *, *, #18, .F. ) ;
#10 = PRODUCT_DEFINITION_FORMATION_WITH_SPECIFIED_SOURCE ( 'ANY', '', #72, .NOT_KNOWN. ) ;
#11 = CARTESIAN_POINT ( 'NONE',  ( 0.000000000000000000, 0.2999999999999999889, 0.000000000000000000 ) ) ;
#12 = ADVANCED_FACE ( 'NONE', ( #194, #84 ), #137, .T. ) ;
#13 = CARTESIAN_POINT ( 'NONE',  ( 0.000000000000000000, 0.000000000000000000, 12.90000000000000036 ) ) ;
#14 = EDGE_LOOP ( 'NONE', ( #214 ) ) ;
#15 = EDGE_LOOP ( 'NONE', ( #209 ) ) ;
#16 = AXIS2_PLACEMENT_3D ( 'NONE', #255, #253, #162 ) ;
#17 = DIRECTION ( 'NONE',  ( 0.000000000000000000, 0.000000000000000000, -1.000000000000000000 ) ) ;
#18 = EDGE_CURVE ( 'NONE', #359, #359, #318, .T. ) ;
#19 = CYLINDRICAL_SURFACE ( 'NONE', #227, 1.930000000000423821 ) ;
#20 =( NAMED_UNIT ( * ) PLANE_ANGLE_UNIT ( ) SI_UNIT ( $, .RADIAN. ) );
#21 = EDGE_LOOP ( 'NONE', ( #104 ) ) ;
#22 = AXIS2_PLACEMENT_3D ( 'NONE', #340, #256, #310 ) ;
#23 = AXIS2_PLACEMENT_3D ( 'NONE', #236, #69, #354 ) ;
#24 = CARTESIAN_POINT ( 'NONE',  ( 1.930000000000423821, 0.000000000000000000, 5.500000000000000000 ) ) ;
#25 = CARTESIAN_POINT ( 'NONE',  ( 0.000000000000000000, 0.000000000000000000, 12.90000000000000036 ) ) ;
#26 = ORIENTED_EDGE ( 'NONE', *, *, #192, .F. ) ;
#27 = CARTESIAN_POINT ( 'NONE',  ( 0.000000000000000000, 0.000000000000000000, 0.5999999999999912070 ) ) ;
#28 = AXIS2_PLACEMENT_3D ( 'NONE', #234, #264, #3 ) ;
#29 = FACE_OUTER_BOUND ( 'NONE', #343, .T. ) ;
#30 = CARTESIAN_POINT ( 'NONE',  ( 0.000000000000000000, 0.000000000000000000, 4.999999999999950262 ) ) ;
#31 = CARTESIAN_POINT ( 'NONE',  ( 0.000000000000000000, 0.000000000000000000, 9.379999999999997229 ) ) ;
#32 = AXIS2_PLACEMENT_3D ( 'NONE', #316, #57, #169 ) ;
#33 = CARTESIAN_POINT ( 'NONE',  ( 0.000000000000000000, 0.000000000000000000, 12.90000000000000036 ) ) ;
#34 = DIRECTION ( 'NONE',  ( 0.000000000000000000, 0.000000000000000000, -1.000000000000000000 ) ) ;
#35 = PRESENTATION_STYLE_ASSIGNMENT (( #38 ) ) ;
#36 = EDGE_LOOP ( 'NONE', ( #268 ) ) ;
#37 = EDGE_CURVE ( 'NONE', #210, #210, #45, .T. ) ;
#38 = SURFACE_STYLE_USAGE ( .BOTH. , #93 ) ;
#39 = DIRECTION ( 'NONE',  ( -0.000000000000000000, -0.000000000000000000, 1.000000000000000000 ) ) ;
#40 = EDGE_LOOP ( 'NONE', ( #126 ) ) ;
#41 = DIRECTION ( 'NONE',  ( 0.000000000000000000, -0.000000000000000000, 1.000000000000000000 ) ) ;
#42 = EDGE_LOOP ( 'NONE', ( #47 ) ) ;
#43 = SURFACE_STYLE_FILL_AREA ( #220 ) ;
#44 = PLANE ( 'NONE',  #188 ) ;
#45 = CIRCLE ( 'NONE', #338, 0.8499999999999999778 ) ;
#46 = FILL_AREA_STYLE_COLOUR ( '', #190 ) ;
#47 = ORIENTED_EDGE ( 'NONE', *, *, #300, .T. ) ;
#48 = VERTEX_POINT ( 'NONE', #277 ) ;
#49 = EDGE_LOOP ( 'NONE', ( #270 ) ) ;
#50 = UNCERTAINTY_MEASURE_WITH_UNIT (LENGTH_MEASURE( 1.000000000000000082E-05 ), #119, 'distance_accuracy_value', 'NONE');
#51 = ADVANCED_FACE ( 'NONE', ( #285, #280 ), #19, .T. ) ;
#52 = CARTESIAN_POINT ( 'NONE',  ( 0.4149999999999919309, 0.000000000000000000, 0.000000000000000000 ) ) ;
#53 = ORIENTED_EDGE ( 'NONE', *, *, #173, .T. ) ;
#54 = AXIS2_PLACEMENT_3D ( 'NONE', #372, #111, #82 ) ;
#55 = STYLED_ITEM ( 'NONE', ( #342 ), #130 ) ;
#56 = DIRECTION ( 'NONE',  ( -0.000000000000000000, -0.000000000000000000, 1.000000000000000000 ) ) ;
#57 = DIRECTION ( 'NONE',  ( -0.000000000000000000, -0.000000000000000000, 1.000000000000000000 ) ) ;
#58 = CIRCLE ( 'NONE', #244, 1.014999999999982361 ) ;
#59 = PLANE ( 'NONE',  #207 ) ;
#60 = DIRECTION ( 'NONE',  ( 1.000000000000000000, 0.000000000000000000, 0.000000000000000000 ) ) ;
#61 = FACE_OUTER_BOUND ( 'NONE', #274, .T. ) ;
#62 = AXIS2_PLACEMENT_3D ( 'NONE', #116, #230, #88 ) ;
#63 = CARTESIAN_POINT ( 'NONE',  ( 0.000000000000000000, 0.000000000000000000, 12.90000000000000036 ) ) ;
#64 = EDGE_LOOP ( 'NONE', ( #365 ) ) ;
#65 = FACE_OUTER_BOUND ( 'NONE', #360, .T. ) ;
#66 = APPLICATION_CONTEXT ( 'automotive_design' ) ;
#67 = CARTESIAN_POINT ( 'NONE',  ( 0.000000000000000000, 0.000000000000000000, 9.379999999999997229 ) ) ;
#68 = EDGE_LOOP ( 'NONE', ( #363 ) ) ;
#69 = DIRECTION ( 'NONE',  ( -0.000000000000000000, -0.000000000000000000, 1.000000000000000000 ) ) ;
#70 = CIRCLE ( 'NONE', #23, 0.6299999999999912337 ) ;
#71 = EDGE_LOOP ( 'NONE', ( #327 ) ) ;
#72 = PRODUCT ( 'FK-508', 'FK-508', '', ( #90 ) ) ;
#73 = EDGE_LOOP ( 'NONE', ( #222 ) ) ;
#74 = EDGE_CURVE ( 'NONE', #328, #328, #331, .T. ) ;
#75 = FACE_BOUND ( 'NONE', #301, .T. ) ;
#76 = EDGE_LOOP ( 'NONE', ( #358 ) ) ;
#77 = CIRCLE ( 'NONE', #108, 0.6299999999999916778 ) ;
#78 =( NAMED_UNIT ( * ) PLANE_ANGLE_UNIT ( ) SI_UNIT ( $, .RADIAN. ) );
#79 = ORIENTED_EDGE ( 'NONE', *, *, #269, .F. ) ;
#80 = EDGE_CURVE ( 'NONE', #81, #81, #215, .T. ) ;
#81 = VERTEX_POINT ( 'NONE', #134 ) ;
#82 = DIRECTION ( 'NONE',  ( 1.000000000000000000, 0.000000000000000000, 0.000000000000000000 ) ) ;
#83 = VERTEX_POINT ( 'NONE', #336 ) ;
#84 = FACE_OUTER_BOUND ( 'NONE', #139, .T. ) ;
#85 = AXIS2_PLACEMENT_3D ( 'NONE', #228, #293, #112 ) ;
#86 = FACE_BOUND ( 'NONE', #367, .T. ) ;
#87 = FACE_OUTER_BOUND ( 'NONE', #76, .T. ) ;
#88 = DIRECTION ( 'NONE',  ( 1.000000000000000000, 0.000000000000000000, 0.000000000000000000 ) ) ;
#89 = CIRCLE ( 'NONE', #339, 1.145000000000000018 ) ;
#90 = PRODUCT_CONTEXT ( 'NONE', #66, 'mechanical' ) ;
#91 = CARTESIAN_POINT ( 'NONE',  ( 0.000000000000000000, 0.000000000000000000, 12.90000000000000036 ) ) ;
#92 = DIRECTION ( 'NONE',  ( -1.000000000000000000, 0.000000000000000000, 0.000000000000000000 ) ) ;
#93 = SURFACE_SIDE_STYLE ('',( #334 ) ) ;
#94 = AXIS2_PLACEMENT_3D ( 'NONE', #161, #249, #368 ) ;
#95 = CARTESIAN_POINT ( 'NONE',  ( 0.6799999999999798428, 0.000000000000000000, 9.500000000000000000 ) ) ;
#96 = PRODUCT_RELATED_PRODUCT_CATEGORY ( 'part', '', ( #72 ) ) ;
#97 = EDGE_LOOP ( 'NONE', ( #186 ) ) ;
#98 = CARTESIAN_POINT ( 'NONE',  ( 0.8499999999999999778, 0.000000000000000000, 0.8221270722614925086 ) ) ;
#99 = EDGE_LOOP ( 'NONE', ( #129 ) ) ;
#100 = DIRECTION ( 'NONE',  ( 1.000000000000000000, 0.000000000000000000, 0.000000000000000000 ) ) ;
#101 = ORIENTED_EDGE ( 'NONE', *, *, #326, .F. ) ;
#102 =( NAMED_UNIT ( * ) SI_UNIT ( $, .STERADIAN. ) SOLID_ANGLE_UNIT ( ) );
#103 = CARTESIAN_POINT ( 'NONE',  ( 0.000000000000000000, 0.000000000000000000, 9.799999999999998934 ) ) ;
#104 = ORIENTED_EDGE ( 'NONE', *, *, #18, .T. ) ;
#105 = AXIS2_PLACEMENT_3D ( 'NONE', #150, #128, #100 ) ;
#106 = ADVANCED_FACE ( 'NONE', ( #107, #303 ), #355, .F. ) ;
#107 = FACE_OUTER_BOUND ( 'NONE', #64, .T. ) ;
#108 = AXIS2_PLACEMENT_3D ( 'NONE', #266, #362, #275 ) ;
#109 = VERTEX_POINT ( 'NONE', #279 ) ;
#110 = DIRECTION ( 'NONE',  ( 1.000000000000000000, 0.000000000000000000, 0.000000000000000000 ) ) ;
#111 = DIRECTION ( 'NONE',  ( -0.000000000000000000, -0.000000000000000000, 1.000000000000000000 ) ) ;
#112 = DIRECTION ( 'NONE',  ( 1.000000000000000000, 0.000000000000000000, 0.000000000000000000 ) ) ;
#113 = CIRCLE ( 'NONE', #312, 0.8249999999999999556 ) ;
#114 = EDGE_CURVE ( 'NONE', #193, #193, #265, .T. ) ;
#115 = CYLINDRICAL_SURFACE ( 'NONE', #271, 0.8499999999999999778 ) ;
#116 = CARTESIAN_POINT ( 'NONE',  ( 0.000000000000000000, 0.000000000000000000, 9.700000000000001066 ) ) ;
#117 = AXIS2_PLACEMENT_3D ( 'NONE', #147, #170, #60 ) ;
#118 = PLANE ( 'NONE',  #165 ) ;
#119 =( LENGTH_UNIT ( ) NAMED_UNIT ( * ) SI_UNIT ( .MILLI., .METRE. ) );
#120 = DIRECTION ( 'NONE',  ( 1.000000000000000000, 0.000000000000000000, 0.000000000000000000 ) ) ;
#121 = ORIENTED_EDGE ( 'NONE', *, *, #320, .T. ) ;
#122 = AXIS2_PLACEMENT_3D ( 'NONE', #314, #195, #110 ) ;
#123 = EDGE_CURVE ( 'NONE', #305, #305, #113, .T. ) ;
#124 = PRESENTATION_LAYER_ASSIGNMENT (  '', '', ( #313 ) ) ;
#125 = CARTESIAN_POINT ( 'NONE',  ( 0.2999999999999999889, 0.000000000000000000, 0.4757169107476952874 ) ) ;
#126 = ORIENTED_EDGE ( 'NONE', *, *, #252, .T. ) ;
#127 = ORIENTED_EDGE ( 'NONE', *, *, #74, .T. ) ;
#128 = DIRECTION ( 'NONE',  ( -0.000000000000000000, -0.000000000000000000, 1.000000000000000000 ) ) ;
#129 = ORIENTED_EDGE ( 'NONE', *, *, #192, .T. ) ;
#130 = ADVANCED_BREP_SHAPE_REPRESENTATION ( 'FK-508', ( #375, #272 ), #143 ) ;
#131 =( LENGTH_UNIT ( ) NAMED_UNIT ( * ) SI_UNIT ( .MILLI., .METRE. ) );
#132 = VERTEX_POINT ( 'NONE', #196 ) ;
#133 = DIRECTION ( 'NONE',  ( -1.000000000000000000, 0.000000000000000000, -0.000000000000000000 ) ) ;
#134 = CARTESIAN_POINT ( 'NONE',  ( 0.8499999999999999778, 0.000000000000000000, 9.321381712984358359 ) ) ;
#135 = DIRECTION ( 'NONE',  ( -0.000000000000000000, -0.000000000000000000, 1.000000000000000000 ) ) ;
#136 = SURFACE_STYLE_USAGE ( .BOTH. , #158 ) ;
#137 = CYLINDRICAL_SURFACE ( 'NONE', #1, 1.144999999999999796 ) ;
#138 = CARTESIAN_POINT ( 'NONE',  ( 0.2999999999999999889, 0.000000000000000000, 0.000000000000000000 ) ) ;
#139 = EDGE_LOOP ( 'NONE', ( #153 ) ) ;
#140 = DIRECTION ( 'NONE',  ( 1.000000000000000000, 0.000000000000000000, 0.000000000000000000 ) ) ;
#141 = ADVANCED_FACE ( 'NONE', ( #75, #187 ), #44, .F. ) ;
#142 = DIRECTION ( 'NONE',  ( 1.000000000000000000, 0.000000000000000000, 0.000000000000000000 ) ) ;
#143 =( GEOMETRIC_REPRESENTATION_CONTEXT ( 3 ) GLOBAL_UNCERTAINTY_ASSIGNED_CONTEXT ( ( #352 ) ) GLOBAL_UNIT_ASSIGNED_CONTEXT ( ( #247, #20, #302 ) ) REPRESENTATION_CONTEXT ( 'NONE', 'WORKASPACE' ) );
#144 = FACE_OUTER_BOUND ( 'NONE', #211, .T. ) ;
#145 = ADVANCED_FACE ( 'NONE', ( #86, #87 ), #171, .F. ) ;
#146 = DIRECTION ( 'NONE',  ( 0.000000000000000000, 0.000000000000000000, -1.000000000000000000 ) ) ;
#147 = CARTESIAN_POINT ( 'NONE',  ( 0.000000000000000000, 1.014999999999982361, 4.999999999999949374 ) ) ;
#148 = AXIS2_PLACEMENT_3D ( 'NONE', #33, #344, #261 ) ;
#149 = DIRECTION ( 'NONE',  ( 1.000000000000000000, 0.000000000000000000, 0.000000000000000000 ) ) ;
#150 = CARTESIAN_POINT ( 'NONE',  ( 0.000000000000000000, 0.000000000000000000, 4.999999999999950262 ) ) ;
#151 = ORIENTED_EDGE ( 'NONE', *, *, #348, .F. ) ;
#152 = ADVANCED_FACE ( 'NONE', ( #205, #232 ), #154, .T. ) ;
#153 = ORIENTED_EDGE ( 'NONE', *, *, #326, .T. ) ;
#154 = CONICAL_SURFACE ( 'NONE', #283, 1.144999999999999574, 0.7853981633974437271 ) ;
#155 = DIRECTION ( 'NONE',  ( -0.000000000000000000, -0.000000000000000000, 1.000000000000000000 ) ) ;
#156 = FACE_BOUND ( 'NONE', #330, .T. ) ;
#157 = ORIENTED_EDGE ( 'NONE', *, *, #252, .F. ) ;
#158 = SURFACE_SIDE_STYLE ('',( #43 ) ) ;
#159 = AXIS2_PLACEMENT_3D ( 'NONE', #67, #273, #299 ) ;
#160 = VERTEX_POINT ( 'NONE', #138 ) ;
#161 = CARTESIAN_POINT ( 'NONE',  ( 0.000000000000000000, 0.000000000000000000, 9.321381712984358359 ) ) ;
#162 = DIRECTION ( 'NONE',  ( 1.000000000000000000, 0.000000000000000000, 0.000000000000000000 ) ) ;
#163 = DIRECTION ( 'NONE',  ( -0.000000000000000000, -0.000000000000000000, 1.000000000000000000 ) ) ;
#164 = VERTEX_POINT ( 'NONE', #189 ) ;
#165 = AXIS2_PLACEMENT_3D ( 'NONE', #380, #351, #199 ) ;
#166 = EDGE_LOOP ( 'NONE', ( #218 ) ) ;
#167 = ADVANCED_FACE ( 'NONE', ( #291, #321 ), #262, .F. ) ;
#168 = ORIENTED_EDGE ( 'NONE', *, *, #5, .T. ) ;
#169 = DIRECTION ( 'NONE',  ( 1.000000000000000000, 0.000000000000000000, 0.000000000000000000 ) ) ;
#170 = DIRECTION ( 'NONE',  ( 0.000000000000000000, -0.000000000000000000, 1.000000000000000000 ) ) ;
#171 = CONICAL_SURFACE ( 'NONE', #177, 0.8499999999999999778, 1.008726523789241103 ) ;
#172 = MECHANICAL_DESIGN_GEOMETRIC_PRESENTATION_REPRESENTATION (  '', ( #55 ), #290 ) ;
#173 = EDGE_CURVE ( 'NONE', #160, #160, #257, .T. ) ;
#174 = CARTESIAN_POINT ( 'NONE',  ( 0.000000000000000000, 0.6299999999999916778, 9.799999999999998934 ) ) ;
#175 = CARTESIAN_POINT ( 'NONE',  ( 0.000000000000000000, 0.000000000000000000, 0.8221270722614925086 ) ) ;
#176 = CYLINDRICAL_SURFACE ( 'NONE', #85, 1.014999999999982361 ) ;
#177 = AXIS2_PLACEMENT_3D ( 'NONE', #175, #292, #142 ) ;
#178 =( NAMED_UNIT ( * ) SI_UNIT ( $, .STERADIAN. ) SOLID_ANGLE_UNIT ( ) );
#179 = ADVANCED_FACE ( 'NONE', ( #258 ), #118, .F. ) ;
#180 = ORIENTED_EDGE ( 'NONE', *, *, #269, .T. ) ;
#181 = DIRECTION ( 'NONE',  ( -1.000000000000000000, 0.000000000000000000, -0.000000000000000000 ) ) ;
#182 = EDGE_LOOP ( 'NONE', ( #224 ) ) ;
#183 = CARTESIAN_POINT ( 'NONE',  ( 0.000000000000000000, 0.000000000000000000, 5.500000000000000000 ) ) ;
#184 = PRODUCT_DEFINITION_SHAPE ( 'NONE', 'NONE',  #361 ) ;
#185 = CYLINDRICAL_SURFACE ( 'NONE', #2, 0.8249999999999999556 ) ;
#186 = ORIENTED_EDGE ( 'NONE', *, *, #80, .T. ) ;
#187 = FACE_OUTER_BOUND ( 'NONE', #335, .T. ) ;
#188 = AXIS2_PLACEMENT_3D ( 'NONE', #278, #17, #133 ) ;
#189 = CARTESIAN_POINT ( 'NONE',  ( 1.014999999999982361, 0.000000000000000000, 4.999999999999950262 ) ) ;
#190 = COLOUR_RGB ( '',1.000000000000000000, 0.8078431372549019773, 0.4980392156862745168 ) ;
#191 = CARTESIAN_POINT ( 'NONE',  ( 0.000000000000000000, 0.000000000000000000, 12.90000000000000036 ) ) ;
#192 = EDGE_CURVE ( 'NONE', #164, #164, #58, .T. ) ;
#193 = VERTEX_POINT ( 'NONE', #24 ) ;
#194 = FACE_OUTER_BOUND ( 'NONE', #71, .T. ) ;
#195 = DIRECTION ( 'NONE',  ( -0.000000000000000000, -0.000000000000000000, 1.000000000000000000 ) ) ;
#196 = CARTESIAN_POINT ( 'NONE',  ( 0.8249999999999999556, 0.000000000000000000, 9.700000000000001066 ) ) ;
#197 = CONICAL_SURFACE ( 'NONE', #32, 0.4149999999999919309, 0.7853981633974476129 ) ;
#198 = ORIENTED_EDGE ( 'NONE', *, *, #114, .T. ) ;
#199 = DIRECTION ( 'NONE',  ( 1.000000000000000000, 0.000000000000000000, 0.000000000000000000 ) ) ;
#200 = FACE_OUTER_BOUND ( 'NONE', #42, .T. ) ;
#201 = FACE_BOUND ( 'NONE', #14, .T. ) ;
#202 = CIRCLE ( 'NONE', #62, 0.8249999999999999556 ) ;
#203 = AXIS2_PLACEMENT_3D ( 'NONE', #6, #39, #120 ) ;
#204 = FACE_OUTER_BOUND ( 'NONE', #240, .T. ) ;
#205 = FACE_BOUND ( 'NONE', #298, .T. ) ;
#206 = ORIENTED_EDGE ( 'NONE', *, *, #173, .F. ) ;
#207 = AXIS2_PLACEMENT_3D ( 'NONE', #174, #146, #323 ) ;
#208 = FACE_OUTER_BOUND ( 'NONE', #49, .T. ) ;
#209 = ORIENTED_EDGE ( 'NONE', *, *, #114, .F. ) ;
#210 = VERTEX_POINT ( 'NONE', #98 ) ;
#211 = EDGE_LOOP ( 'NONE', ( #284 ) ) ;
#212 = ADVANCED_FACE ( 'NONE', ( #61, #317 ), #176, .T. ) ;
#213 = FACE_OUTER_BOUND ( 'NONE', #241, .T. ) ;
#214 = ORIENTED_EDGE ( 'NONE', *, *, #300, .F. ) ;
#215 = CIRCLE ( 'NONE', #94, 0.8499999999999999778 ) ;
#216 = COLOUR_RGB ( '',1.000000000000000000, 0.8078431372549019773, 0.4980392156862745168 ) ;
#217 = FILL_AREA_STYLE_COLOUR ( '', #216 ) ;
#218 = ORIENTED_EDGE ( 'NONE', *, *, #123, .F. ) ;
#219 = DIRECTION ( 'NONE',  ( -0.000000000000000000, -0.000000000000000000, 1.000000000000000000 ) ) ;
#220 = FILL_AREA_STYLE ('',( #46 ) ) ;
#221 = ADVANCED_FACE ( 'NONE', ( #29, #200 ), #350, .T. ) ;
#222 = ORIENTED_EDGE ( 'NONE', *, *, #348, .T. ) ;
#223 = CARTESIAN_POINT ( 'NONE',  ( 1.145000000000000018, 0.000000000000000000, 5.500000000000000000 ) ) ;
#224 = ORIENTED_EDGE ( 'NONE', *, *, #315, .T. ) ;
#225 = CARTESIAN_POINT ( 'NONE',  ( 0.000000000000000000, 0.000000000000000000, 0.000000000000000000 ) ) ;
#226 = DIRECTION ( 'NONE',  ( 1.000000000000000000, 0.000000000000000000, 0.000000000000000000 ) ) ;
#227 = AXIS2_PLACEMENT_3D ( 'NONE', #25, #282, #140 ) ;
#228 = CARTESIAN_POINT ( 'NONE',  ( 0.000000000000000000, 0.000000000000000000, 12.90000000000000036 ) ) ;
#229 = DIRECTION ( 'NONE',  ( 1.000000000000000000, 0.000000000000000000, 0.000000000000000000 ) ) ;
#230 = DIRECTION ( 'NONE',  ( -0.000000000000000000, -0.000000000000000000, 1.000000000000000000 ) ) ;
#231 = CARTESIAN_POINT ( 'NONE',  ( 0.000000000000000000, 0.000000000000000000, 0.000000000000000000 ) ) ;
#232 = FACE_OUTER_BOUND ( 'NONE', #308, .T. ) ;
#233 = CIRCLE ( 'NONE', #122, 0.2999999999999999889 ) ;
#234 = CARTESIAN_POINT ( 'NONE',  ( 0.000000000000000000, 0.000000000000000000, 0.000000000000000000 ) ) ;
#235 =( NAMED_UNIT ( * ) PLANE_ANGLE_UNIT ( ) SI_UNIT ( $, .RADIAN. ) );
#236 = CARTESIAN_POINT ( 'NONE',  ( 0.000000000000000000, 0.000000000000000000, 12.90000000000000036 ) ) ;
#237 = AXIS2_PLACEMENT_3D ( 'NONE', #63, #34, #181 ) ;
#238 = PRESENTATION_LAYER_ASSIGNMENT (  '', '', ( #55 ) ) ;
#239 = CYLINDRICAL_SURFACE ( 'NONE', #203, 0.2999999999999999889 ) ;
#240 = EDGE_LOOP ( 'NONE', ( #157 ) ) ;
#241 = EDGE_LOOP ( 'NONE', ( #206 ) ) ;
#242 = DIRECTION ( 'NONE',  ( 1.000000000000000000, 0.000000000000000000, 0.000000000000000000 ) ) ;
#243 = EDGE_LOOP ( 'NONE', ( #127 ) ) ;
#244 = AXIS2_PLACEMENT_3D ( 'NONE', #30, #322, #149 ) ;
#245 = EDGE_LOOP ( 'NONE', ( #9 ) ) ;
#246 = ADVANCED_FACE ( 'NONE', ( #204, #289 ), #197, .T. ) ;
#247 =( LENGTH_UNIT ( ) NAMED_UNIT ( * ) SI_UNIT ( .MILLI., .METRE. ) );
#248 = ORIENTED_EDGE ( 'NONE', *, *, #5, .F. ) ;
#249 = DIRECTION ( 'NONE',  ( -0.000000000000000000, -0.000000000000000000, 1.000000000000000000 ) ) ;
#250 = CIRCLE ( 'NONE', #159, 1.144999999999999574 ) ;
#251 = CARTESIAN_POINT ( 'NONE',  ( 1.144999999999999574, 0.000000000000000000, 9.379999999999997229 ) ) ;
#252 = EDGE_CURVE ( 'NONE', #48, #48, #376, .T. ) ;
#253 = DIRECTION ( 'NONE',  ( -0.000000000000000000, -0.000000000000000000, 1.000000000000000000 ) ) ;
#254 = VERTEX_POINT ( 'NONE', #251 ) ;
#255 = CARTESIAN_POINT ( 'NONE',  ( 0.000000000000000000, 0.000000000000000000, 9.500000000000000000 ) ) ;
#256 = DIRECTION ( 'NONE',  ( 0.000000000000000000, 0.000000000000000000, -1.000000000000000000 ) ) ;
#257 = CIRCLE ( 'NONE', #28, 0.2999999999999999889 ) ;
#258 = FACE_OUTER_BOUND ( 'NONE', #245, .T. ) ;
#259 = ADVANCED_FACE ( 'NONE', ( #144, #377 ), #115, .F. ) ;
#260 = APPLICATION_PROTOCOL_DEFINITION ( 'draft international standard', 'automotive_design', 1998, #379 ) ;
#261 = DIRECTION ( 'NONE',  ( 1.000000000000000000, 0.000000000000000000, 0.000000000000000000 ) ) ;
#262 = PLANE ( 'NONE',  #117 ) ;
#263 = UNCERTAINTY_MEASURE_WITH_UNIT (LENGTH_MEASURE( 1.000000000000000082E-05 ), #131, 'distance_accuracy_value', 'NONE');
#264 = DIRECTION ( 'NONE',  ( -0.000000000000000000, -0.000000000000000000, 1.000000000000000000 ) ) ;
#265 = CIRCLE ( 'NONE', #54, 1.930000000000423821 ) ;
#266 = CARTESIAN_POINT ( 'NONE',  ( 0.000000000000000000, 0.000000000000000000, 9.799999999999998934 ) ) ;
#267 = FACE_OUTER_BOUND ( 'NONE', #324, .T. ) ;
#268 = ORIENTED_EDGE ( 'NONE', *, *, #123, .T. ) ;
#269 = EDGE_CURVE ( 'NONE', #132, #132, #202, .T. ) ;
#270 = ORIENTED_EDGE ( 'NONE', *, *, #74, .F. ) ;
#271 = AXIS2_PLACEMENT_3D ( 'NONE', #91, #346, #378 ) ;
#272 = AXIS2_PLACEMENT_3D ( 'NONE', #231, #345, #349 ) ;
#273 = DIRECTION ( 'NONE',  ( -0.000000000000000000, -0.000000000000000000, 1.000000000000000000 ) ) ;
#274 = EDGE_LOOP ( 'NONE', ( #26 ) ) ;
#275 = DIRECTION ( 'NONE',  ( 1.000000000000000000, 0.000000000000000000, 0.000000000000000000 ) ) ;
#276 = CIRCLE ( 'NONE', #105, 1.930000000000423821 ) ;
#277 = CARTESIAN_POINT ( 'NONE',  ( 1.014999999999982361, 0.000000000000000000, 0.5999999999999912070 ) ) ;
#278 = CARTESIAN_POINT ( 'NONE',  ( 0.000000000000000000, 1.145000000000000018, 5.500000000000000000 ) ) ;
#279 = CARTESIAN_POINT ( 'NONE',  ( 1.930000000000423821, 0.000000000000000000, 4.999999999999950262 ) ) ;
#280 = FACE_OUTER_BOUND ( 'NONE', #182, .T. ) ;
#281 = ADVANCED_FACE ( 'NONE', ( #201, #319 ), #59, .F. ) ;
#282 = DIRECTION ( 'NONE',  ( -0.000000000000000000, -0.000000000000000000, 1.000000000000000000 ) ) ;
#283 = AXIS2_PLACEMENT_3D ( 'NONE', #31, #374, #92 ) ;
#284 = ORIENTED_EDGE ( 'NONE', *, *, #37, .F. ) ;
#285 = FACE_OUTER_BOUND ( 'NONE', #15, .T. ) ;
#286 = SHAPE_DEFINITION_REPRESENTATION ( #184, #130 ) ;
#287 = ADVANCED_FACE ( 'NONE', ( #357 ), #325, .F. ) ;
#288 = CLOSED_SHELL ( 'NONE', ( #373, #152, #12, #141, #51, #167, #212, #246, #353, #333, #145, #259, #106, #179, #287, #221, #281 ) ) ;
#289 = FACE_BOUND ( 'NONE', #243, .T. ) ;
#290 =( GEOMETRIC_REPRESENTATION_CONTEXT ( 3 ) GLOBAL_UNCERTAINTY_ASSIGNED_CONTEXT ( ( #263 ) ) GLOBAL_UNIT_ASSIGNED_CONTEXT ( ( #131, #78, #102 ) ) REPRESENTATION_CONTEXT ( 'NONE', 'WORKASPACE' ) );
#291 = FACE_OUTER_BOUND ( 'NONE', #68, .T. ) ;
#292 = DIRECTION ( 'NONE',  ( -0.000000000000000000, -0.000000000000000000, 1.000000000000000000 ) ) ;
#293 = DIRECTION ( 'NONE',  ( -0.000000000000000000, -0.000000000000000000, 1.000000000000000000 ) ) ;
#294 = DIRECTION ( 'NONE',  ( 1.000000000000000000, 0.000000000000000000, 0.000000000000000000 ) ) ;
#295 = FILL_AREA_STYLE ('',( #217 ) ) ;
#296 = PLANE ( 'NONE',  #304 ) ;
#297 = DIRECTION ( 'NONE',  ( -0.000000000000000000, -0.000000000000000000, 1.000000000000000000 ) ) ;
#298 = EDGE_LOOP ( 'NONE', ( #79 ) ) ;
#299 = DIRECTION ( 'NONE',  ( 1.000000000000000000, 0.000000000000000000, 0.000000000000000000 ) ) ;
#300 = EDGE_CURVE ( 'NONE', #309, #309, #77, .T. ) ;
#301 = EDGE_LOOP ( 'NONE', ( #101 ) ) ;
#302 =( NAMED_UNIT ( * ) SI_UNIT ( $, .STERADIAN. ) SOLID_ANGLE_UNIT ( ) );
#303 = FACE_BOUND ( 'NONE', #21, .T. ) ;
#304 = AXIS2_PLACEMENT_3D ( 'NONE', #11, #41, #4 ) ;
#305 = VERTEX_POINT ( 'NONE', #366 ) ;
#306 = DIRECTION ( 'NONE',  ( 1.000000000000000000, 0.000000000000000000, 0.000000000000000000 ) ) ;
#307 = APPLICATION_PROTOCOL_DEFINITION ( 'draft international standard', 'automotive_design', 1998, #66 ) ;
#308 = EDGE_LOOP ( 'NONE', ( #121 ) ) ;
#309 = VERTEX_POINT ( 'NONE', #369 ) ;
#310 = DIRECTION ( 'NONE',  ( -1.000000000000000000, 0.000000000000000000, 0.000000000000000000 ) ) ;
#311 = PRODUCT_DEFINITION_CONTEXT ( 'detailed design', #379, 'design' ) ;
#312 = AXIS2_PLACEMENT_3D ( 'NONE', #103, #219, #226 ) ;
#313 = STYLED_ITEM ( 'NONE', ( #35 ), #375 ) ;
#314 = CARTESIAN_POINT ( 'NONE',  ( 0.000000000000000000, 0.000000000000000000, 0.4757169107476952874 ) ) ;
#315 = EDGE_CURVE ( 'NONE', #109, #109, #276, .T. ) ;
#316 = CARTESIAN_POINT ( 'NONE',  ( 0.000000000000000000, 0.000000000000000000, 0.000000000000000000 ) ) ;
#317 = FACE_OUTER_BOUND ( 'NONE', #40, .T. ) ;
#318 = CIRCLE ( 'NONE', #16, 0.6799999999999798428 ) ;
#319 = FACE_OUTER_BOUND ( 'NONE', #36, .T. ) ;
#320 = EDGE_CURVE ( 'NONE', #254, #254, #250, .T. ) ;
#321 = FACE_BOUND ( 'NONE', #99, .T. ) ;
#322 = DIRECTION ( 'NONE',  ( -0.000000000000000000, -0.000000000000000000, 1.000000000000000000 ) ) ;
#323 = DIRECTION ( 'NONE',  ( -1.000000000000000000, 0.000000000000000000, -0.000000000000000000 ) ) ;
#324 = EDGE_LOOP ( 'NONE', ( #168 ) ) ;
#325 = PLANE ( 'NONE',  #237 ) ;
#326 = EDGE_CURVE ( 'NONE', #371, #371, #89, .T. ) ;
#327 = ORIENTED_EDGE ( 'NONE', *, *, #320, .F. ) ;
#328 = VERTEX_POINT ( 'NONE', #52 ) ;
#329 = FACE_OUTER_BOUND ( 'NONE', #166, .T. ) ;
#330 = EDGE_LOOP ( 'NONE', ( #53 ) ) ;
#331 = CIRCLE ( 'NONE', #8, 0.4149999999999919309 ) ;
#332 =( GEOMETRIC_REPRESENTATION_CONTEXT ( 3 ) GLOBAL_UNCERTAINTY_ASSIGNED_CONTEXT ( ( #50 ) ) GLOBAL_UNIT_ASSIGNED_CONTEXT ( ( #119, #235, #178 ) ) REPRESENTATION_CONTEXT ( 'NONE', 'WORKASPACE' ) );
#333 = ADVANCED_FACE ( 'NONE', ( #213, #267 ), #239, .F. ) ;
#334 = SURFACE_STYLE_FILL_AREA ( #295 ) ;
#335 = EDGE_LOOP ( 'NONE', ( #198 ) ) ;
#336 = CARTESIAN_POINT ( 'NONE',  ( 0.6299999999999912337, 0.000000000000000000, 12.90000000000000036 ) ) ;
#337 = CARTESIAN_POINT ( 'NONE',  ( 0.000000000000000000, 0.000000000000000000, 0.8221270722614925086 ) ) ;
#338 = AXIS2_PLACEMENT_3D ( 'NONE', #337, #56, #370 ) ;
#339 = AXIS2_PLACEMENT_3D ( 'NONE', #183, #297, #294 ) ;
#340 = CARTESIAN_POINT ( 'NONE',  ( 0.000000000000000000, 0.000000000000000000, 9.500000000000000000 ) ) ;
#341 = DIRECTION ( 'NONE',  ( 1.000000000000000000, 0.000000000000000000, 0.000000000000000000 ) ) ;
#342 = PRESENTATION_STYLE_ASSIGNMENT (( #136 ) ) ;
#343 = EDGE_LOOP ( 'NONE', ( #151 ) ) ;
#344 = DIRECTION ( 'NONE',  ( -0.000000000000000000, -0.000000000000000000, 1.000000000000000000 ) ) ;
#345 = DIRECTION ( 'NONE',  ( 0.000000000000000000, 0.000000000000000000, 1.000000000000000000 ) ) ;
#346 = DIRECTION ( 'NONE',  ( -0.000000000000000000, -0.000000000000000000, 1.000000000000000000 ) ) ;
#347 = DIRECTION ( 'NONE',  ( -0.000000000000000000, -0.000000000000000000, 1.000000000000000000 ) ) ;
#348 = EDGE_CURVE ( 'NONE', #83, #83, #70, .T. ) ;
#349 = DIRECTION ( 'NONE',  ( 1.000000000000000000, 0.000000000000000000, 0.000000000000000000 ) ) ;
#350 = CYLINDRICAL_SURFACE ( 'NONE', #148, 0.6299999999999914557 ) ;
#351 = DIRECTION ( 'NONE',  ( 0.000000000000000000, -0.000000000000000000, 1.000000000000000000 ) ) ;
#352 = UNCERTAINTY_MEASURE_WITH_UNIT (LENGTH_MEASURE( 1.000000000000000082E-05 ), #247, 'distance_accuracy_value', 'NONE');
#353 = ADVANCED_FACE ( 'NONE', ( #208, #156 ), #296, .F. ) ;
#354 = DIRECTION ( 'NONE',  ( 1.000000000000000000, 0.000000000000000000, 0.000000000000000000 ) ) ;
#355 = CONICAL_SURFACE ( 'NONE', #22, 0.6799999999999798428, 0.7606819269963313035 ) ;
#356 = MECHANICAL_DESIGN_GEOMETRIC_PRESENTATION_REPRESENTATION (  '', ( #313 ), #332 ) ;
#357 = FACE_OUTER_BOUND ( 'NONE', #73, .T. ) ;
#358 = ORIENTED_EDGE ( 'NONE', *, *, #37, .T. ) ;
#359 = VERTEX_POINT ( 'NONE', #95 ) ;
#360 = EDGE_LOOP ( 'NONE', ( #180 ) ) ;
#361 = PRODUCT_DEFINITION ( 'UNKNOWN', '', #10, #311 ) ;
#362 = DIRECTION ( 'NONE',  ( -0.000000000000000000, -0.000000000000000000, 1.000000000000000000 ) ) ;
#363 = ORIENTED_EDGE ( 'NONE', *, *, #315, .F. ) ;
#364 = AXIS2_PLACEMENT_3D ( 'NONE', #27, #347, #229 ) ;
#365 = ORIENTED_EDGE ( 'NONE', *, *, #80, .F. ) ;
#366 = CARTESIAN_POINT ( 'NONE',  ( 0.8249999999999999556, 0.000000000000000000, 9.799999999999998934 ) ) ;
#367 = EDGE_LOOP ( 'NONE', ( #248 ) ) ;
#368 = DIRECTION ( 'NONE',  ( 1.000000000000000000, 0.000000000000000000, 0.000000000000000000 ) ) ;
#369 = CARTESIAN_POINT ( 'NONE',  ( 0.6299999999999916778, 0.000000000000000000, 9.799999999999998934 ) ) ;
#370 = DIRECTION ( 'NONE',  ( 1.000000000000000000, 0.000000000000000000, 0.000000000000000000 ) ) ;
#371 = VERTEX_POINT ( 'NONE', #223 ) ;
#372 = CARTESIAN_POINT ( 'NONE',  ( 0.000000000000000000, 0.000000000000000000, 5.500000000000000000 ) ) ;
#373 = ADVANCED_FACE ( 'NONE', ( #329, #65 ), #185, .T. ) ;
#374 = DIRECTION ( 'NONE',  ( 0.000000000000000000, 0.000000000000000000, -1.000000000000000000 ) ) ;
#375 = MANIFOLD_SOLID_BREP ( 'Rotation3', #288 ) ;
#376 = CIRCLE ( 'NONE', #364, 1.014999999999982361 ) ;
#377 = FACE_OUTER_BOUND ( 'NONE', #97, .T. ) ;
#378 = DIRECTION ( 'NONE',  ( 1.000000000000000000, 0.000000000000000000, 0.000000000000000000 ) ) ;
#379 = APPLICATION_CONTEXT ( 'automotive_design' ) ;
#380 = CARTESIAN_POINT ( 'NONE',  ( 0.000000000000000000, 0.6799999999999798428, 9.500000000000000000 ) ) ;
ENDSEC;
END-ISO-10303-21;
