ISO-10303-21;
HEADER;
FILE_DESCRIPTION (( 'STEP AP203' ),
    '1' );
FILE_NAME ('101.xx.xx.xx.step',
    '2018-01-12T12:28:40',
    ( 'Piero Chirco' ),
    ( '' ),
    'SwSTEP 2.0',
    'SolidWorks 2016',
    '' );
FILE_SCHEMA (( 'CONFIG_CONTROL_DESIGN' ));
ENDSEC;

DATA;
#1 = DIRECTION ( 'NONE',  ( -1.000000000000000000, 0.0000000000000000000, 0.0000000000000000000 ) ) ;
#2 = CALENDAR_DATE ( 2018, 12, 1 ) ;
#3 = ADVANCED_FACE ( 'NONE', ( #81 ), #251, .T. ) ;
#4 = APPLICATION_PROTOCOL_DEFINITION ( 'international standard', 'config_control_design', 1994, #58 ) ;
#5 = CIRCLE ( 'NONE', #168, 0.4499999999999997900 ) ;
#6 = CC_DESIGN_DATE_AND_TIME_ASSIGNMENT ( #45, #56, ( #104 ) ) ;
#7 = DIRECTION ( 'NONE',  ( -1.000000000000000000, -1.187082670604566900E-016, 0.0000000000000000000 ) ) ;
#8 = DESIGN_CONTEXT ( 'detailed design', #58, 'design' ) ;
#9 = DIRECTION ( 'NONE',  ( 0.0000000000000000000, 0.0000000000000000000, 1.000000000000000000 ) ) ;
#10 = ORIENTED_EDGE ( 'NONE', *, *, #150, .F. ) ;
#11 = CARTESIAN_POINT ( 'NONE',  ( 2.699567608791337100E-032, -1.102182119232614800E-016, 0.0000000000000000000 ) ) ;
#12 = PLANE ( 'NONE',  #206 ) ;
#13 = PERSON_AND_ORGANIZATION ( #113, #126 ) ;
#14 = CC_DESIGN_PERSON_AND_ORGANIZATION_ASSIGNMENT ( #151, #103, ( #104 ) ) ;
#15 = CYLINDRICAL_SURFACE ( 'NONE', #118, 0.6850000000000000500 ) ;
#16 = DIRECTION ( 'NONE',  ( 1.000000000000000000, 1.224646799147353200E-016, 0.0000000000000000000 ) ) ;
#17 = PERSON_AND_ORGANIZATION_ROLE ( 'creator' ) ;
#18 = FACE_OUTER_BOUND ( 'NONE', #59, .T. ) ;
#19 = APPROVAL_STATUS ( 'not_yet_approved' ) ;
#20 = TOROIDAL_SURFACE ( 'NONE', #141, 0.6850000000000000500, 0.1000000000000001600 ) ;
#21 = ADVANCED_FACE ( 'NONE', ( #69, #212 ), #12, .F. ) ;
#22 = AXIS2_PLACEMENT_3D ( 'NONE', #73, #47, #226 ) ;
#23 = VERTEX_POINT ( 'NONE', #243 ) ;
#24 = LOCAL_TIME ( 13, 28, 40.00000000000000000, #255 ) ;
#25 = FACE_OUTER_BOUND ( 'NONE', #149, .T. ) ;
#26 = MECHANICAL_CONTEXT ( 'NONE', #72, 'mechanical' ) ;
#27 = LOCAL_TIME ( 13, 28, 40.00000000000000000, #76 ) ;
#28 = DIRECTION ( 'NONE',  ( 1.000000000000000000, 2.449293598294706900E-016, 0.0000000000000000000 ) ) ;
#29 = CYLINDRICAL_SURFACE ( 'NONE', #180, 0.4499999999999992300 ) ;
#30 = CC_DESIGN_APPROVAL ( #91, ( #104 ) ) ;
#31 = APPROVAL_PERSON_ORGANIZATION ( #79, #78, #143 ) ;
#32 = EDGE_LOOP ( 'NONE', ( #261 ) ) ;
#33 = ORIENTED_EDGE ( 'NONE', *, *, #60, .F. ) ;
#34 = CARTESIAN_POINT ( 'NONE',  ( 1.084202172485504400E-016, -0.6000000000000000900, 0.0000000000000000000 ) ) ;
#35 = CALENDAR_DATE ( 2018, 12, 1 ) ;
#36 = FACE_OUTER_BOUND ( 'NONE', #90, .T. ) ;
#37 = FACE_OUTER_BOUND ( 'NONE', #167, .T. ) ;
#38 = EDGE_LOOP ( 'NONE', ( #43 ) ) ;
#39 = ORIENTED_EDGE ( 'NONE', *, *, #150, .T. ) ;
#40 = DIRECTION ( 'NONE',  ( -1.224646799147353200E-016, 1.000000000000000000, -0.0000000000000000000 ) ) ;
#41 = APPROVAL_STATUS ( 'not_yet_approved' ) ;
#42 = CC_DESIGN_PERSON_AND_ORGANIZATION_ASSIGNMENT ( #68, #95, ( #86 ) ) ;
#43 = ORIENTED_EDGE ( 'NONE', *, *, #115, .F. ) ;
#44 = ORIENTED_EDGE ( 'NONE', *, *, #88, .T. ) ;
#45 = DATE_AND_TIME ( #191, #24 ) ;
#46 = CARTESIAN_POINT ( 'NONE',  ( -1.206277097160142000E-015, 9.849999999999996100, 0.0000000000000000000 ) ) ;
#47 = DIRECTION ( 'NONE',  ( -1.224646799147353200E-016, 1.000000000000000000, -0.0000000000000000000 ) ) ;
#48 =( NAMED_UNIT ( * ) SI_UNIT ( $, .STERADIAN. ) SOLID_ANGLE_UNIT ( ) );
#49 = APPROVAL_ROLE ( '' ) ;
#50 = EDGE_CURVE ( 'NONE', #89, #89, #235, .T. ) ;
#51 = ORIENTED_EDGE ( 'NONE', *, *, #101, .F. ) ;
#52 = DIRECTION ( 'NONE',  ( -1.000000000000000000, -1.582776894139422400E-016, 0.0000000000000000000 ) ) ;
#53 = CARTESIAN_POINT ( 'NONE',  ( -0.6850000000000000500, -1.677766114831874100E-016, 0.0000000000000000000 ) ) ;
#54 = AXIS2_PLACEMENT_3D ( 'NONE', #185, #9, #170 ) ;
#55 = DIRECTION ( 'NONE',  ( -1.000000000000000000, -1.224646799147353200E-016, 0.0000000000000000000 ) ) ;
#56 = DATE_TIME_ROLE ( 'creation_date' ) ;
#57 = CARTESIAN_POINT ( 'NONE',  ( 3.012631125902488400E-015, -24.59999999999999800, 0.0000000000000000000 ) ) ;
#58 = APPLICATION_CONTEXT ( 'configuration controlled 3d designs of mechanical parts and assemblies' ) ;
#59 = EDGE_LOOP ( 'NONE', ( #268 ) ) ;
#60 = EDGE_CURVE ( 'NONE', #121, #121, #110, .T. ) ;
#61 = EDGE_CURVE ( 'NONE', #221, #221, #186, .T. ) ;
#62 = DIRECTION ( 'NONE',  ( -1.224646799147353200E-016, 1.000000000000000000, -0.0000000000000000000 ) ) ;
#63 = CARTESIAN_POINT ( 'NONE',  ( 0.0000000000000000000, 0.0000000000000000000, 0.0000000000000000000 ) ) ;
#64 = CC_DESIGN_APPROVAL ( #78, ( #266 ) ) ;
#65 = CYLINDRICAL_SURFACE ( 'NONE', #93, 0.6850000000000000500 ) ;
#66 = APPROVAL_DATE_TIME ( #111, #246 ) ;
#67 = CALENDAR_DATE ( 2018, 12, 1 ) ;
#68 = PERSON_AND_ORGANIZATION ( #113, #126 ) ;
#69 = FACE_BOUND ( 'NONE', #196, .T. ) ;
#70 = CARTESIAN_POINT ( 'NONE',  ( -0.1849999999999933900, -25.10000000000000100, 0.0000000000000000000 ) ) ;
#71 = CARTESIAN_POINT ( 'NONE',  ( 3.073863465859856800E-015, -25.10000000000000100, 0.0000000000000000000 ) ) ;
#72 = APPLICATION_CONTEXT ( 'configuration controlled 3d designs of mechanical parts and assemblies' ) ;
#73 = CARTESIAN_POINT ( 'NONE',  ( 1.027335451123372600E-032, -8.388830574159370600E-017, 0.0000000000000000000 ) ) ;
#74 = EDGE_CURVE ( 'NONE', #194, #194, #135, .T. ) ;
#75 = DIRECTION ( 'NONE',  ( 1.000000000000000000, 0.0000000000000000000, 0.0000000000000000000 ) ) ;
#76 = COORDINATED_UNIVERSAL_TIME_OFFSET ( 1, 0, .AHEAD. ) ;
#77 = ADVANCED_FACE ( 'NONE', ( #18, #80 ), #176, .T. ) ;
#78 = APPROVAL ( #41, 'UNSPECIFIED' ) ;
#79 = PERSON_AND_ORGANIZATION ( #113, #126 ) ;
#80 = FACE_OUTER_BOUND ( 'NONE', #188, .T. ) ;
#81 = FACE_OUTER_BOUND ( 'NONE', #38, .T. ) ;
#82 = PERSON_AND_ORGANIZATION ( #113, #126 ) ;
#83 = ORIENTED_EDGE ( 'NONE', *, *, #101, .T. ) ;
#84 = ORIENTED_EDGE ( 'NONE', *, *, #74, .T. ) ;
#85 = FACE_OUTER_BOUND ( 'NONE', #204, .T. ) ;
#86 = PRODUCT ( '101.xx.xx.xx', '101.xx.xx.xx', '', ( #26 ) ) ;
#87 = CARTESIAN_POINT ( 'NONE',  ( 1.224646799147353000E-017, -0.09999999999999997800, 0.0000000000000000000 ) ) ;
#88 = EDGE_CURVE ( 'NONE', #147, #147, #264, .T. ) ;
#89 = VERTEX_POINT ( 'NONE', #200 ) ;
#90 = EDGE_LOOP ( 'NONE', ( #160 ) ) ;
#91 = APPROVAL ( #214, 'UNSPECIFIED' ) ;
#92 = MANIFOLD_SOLID_BREP ( '101.05.09.xx', #156 ) ;
#93 = AXIS2_PLACEMENT_3D ( 'NONE', #162, #158, #138 ) ;
#94 = FACE_OUTER_BOUND ( 'NONE', #172, .T. ) ;
#95 = PERSON_AND_ORGANIZATION_ROLE ( 'design_owner' ) ;
#96 = FACE_OUTER_BOUND ( 'NONE', #171, .T. ) ;
#97 = CARTESIAN_POINT ( 'NONE',  ( 8.572527594031474400E-017, -0.7000000000000001800, 0.0000000000000000000 ) ) ;
#98 =( LENGTH_UNIT ( ) NAMED_UNIT ( * ) SI_UNIT ( .MILLI., .METRE. ) );
#99 = ADVANCED_FACE ( 'NONE', ( #161, #159 ), #142, .F. ) ;
#100 = APPROVAL_ROLE ( '' ) ;
#101 = EDGE_CURVE ( 'NONE', #23, #23, #155, .T. ) ;
#102 = CARTESIAN_POINT ( 'NONE',  ( 0.0000000000000000000, 0.0000000000000000000, 0.0000000000000000000 ) ) ;
#103 = PERSON_AND_ORGANIZATION_ROLE ( 'creator' ) ;
#104 = PRODUCT_DEFINITION ( 'UNKNOWN', '', #266, #8 ) ;
#105 =( NAMED_UNIT ( * ) PLANE_ANGLE_UNIT ( ) SI_UNIT ( $, .RADIAN. ) );
#106 = APPLICATION_PROTOCOL_DEFINITION ( 'international standard', 'config_control_design', 1994, #72 ) ;
#107 = DIRECTION ( 'NONE',  ( -1.224646799147353200E-016, 1.000000000000000000, -0.0000000000000000000 ) ) ;
#108 = EDGE_LOOP ( 'NONE', ( #10 ) ) ;
#109 = DIRECTION ( 'NONE',  ( 0.0000000000000000000, -0.0000000000000000000, 1.000000000000000000 ) ) ;
#110 = CIRCLE ( 'NONE', #224, 0.6850000000000000500 ) ;
#111 = DATE_AND_TIME ( #2, #244 ) ;
#112 = EDGE_LOOP ( 'NONE', ( #84 ) ) ;
#113 = PERSON ( 'UNSPECIFIED', 'UNSPECIFIED', 'UNSPECIFIED', ('UNSPECIFIED'), ('UNSPECIFIED'), ('UNSPECIFIED') ) ;
#114 = CARTESIAN_POINT ( 'NONE',  ( 3.008661028647274800E-015, -24.60000000000000100, 0.0000000000000000000 ) ) ;
#115 = EDGE_CURVE ( 'NONE', #202, #202, #5, .T. ) ;
#116 = DATE_AND_TIME ( #227, #232 ) ;
#117 = CIRCLE ( 'NONE', #22, 0.6850000000000000500 ) ;
#118 = AXIS2_PLACEMENT_3D ( 'NONE', #215, #107, #270 ) ;
#119 = ADVANCED_FACE ( 'NONE', ( #37, #174 ), #240, .T. ) ;
#120 = AXIS2_PLACEMENT_3D ( 'NONE', #136, #187, #275 ) ;
#121 = VERTEX_POINT ( 'NONE', #228 ) ;
#122 = CARTESIAN_POINT ( 'NONE',  ( 5.136677255616862900E-033, -4.194415287079685300E-017, 0.0000000000000000000 ) ) ;
#123 = ORIENTED_EDGE ( 'NONE', *, *, #50, .F. ) ;
#124 = ADVANCED_FACE ( 'NONE', ( #36, #144 ), #29, .T. ) ;
#125 = CARTESIAN_POINT ( 'NONE',  ( 0.0000000000000000000, -0.2000000000000000900, 0.0000000000000000000 ) ) ;
#126 = ORGANIZATION ( 'UNSPECIFIED', 'UNSPECIFIED', '' ) ;
#127 = CARTESIAN_POINT ( 'NONE',  ( 0.4499999999999973500, 9.849999999999996100, 0.0000000000000000000 ) ) ;
#128 = DIRECTION ( 'NONE',  ( 1.224646799147353200E-016, -1.000000000000000000, 0.0000000000000000000 ) ) ;
#129 = CARTESIAN_POINT ( 'NONE',  ( 6.123233995736764800E-017, -0.4999999999999998900, 0.0000000000000000000 ) ) ;
#130 = ORIENTED_EDGE ( 'NONE', *, *, #61, .T. ) ;
#131 = FACE_OUTER_BOUND ( 'NONE', #108, .T. ) ;
#132 = EDGE_CURVE ( 'NONE', #164, #164, #205, .T. ) ;
#133 = APPROVAL_PERSON_ORGANIZATION ( #13, #246, #100 ) ;
#134 = PERSON_AND_ORGANIZATION_ROLE ( 'design_supplier' ) ;
#135 = CIRCLE ( 'NONE', #254, 0.1849999999999964500 ) ;
#136 = CARTESIAN_POINT ( 'NONE',  ( 0.1849999999999995000, -25.10000000000000100, 0.0000000000000000000 ) ) ;
#137 = AXIS2_PLACEMENT_3D ( 'NONE', #87, #152, #7 ) ;
#138 = DIRECTION ( 'NONE',  ( -1.000000000000000000, -1.224646799147353200E-016, 0.0000000000000000000 ) ) ;
#139 = LOCAL_TIME ( 13, 28, 40.00000000000000000, #198 ) ;
#140 = DIRECTION ( 'NONE',  ( -1.000000000000000000, -1.224646799147353200E-016, 0.0000000000000000000 ) ) ;
#141 = AXIS2_PLACEMENT_3D ( 'NONE', #34, #210, #140 ) ;
#142 = TOROIDAL_SURFACE ( 'NONE', #199, 0.6850000000000000500, 0.1000000000000001300 ) ;
#143 = APPROVAL_ROLE ( '' ) ;
#144 = FACE_OUTER_BOUND ( 'NONE', #203, .T. ) ;
#145 = DIRECTION ( 'NONE',  ( 2.449293598294706900E-016, -1.000000000000000000, -0.0000000000000000000 ) ) ;
#146 = CARTESIAN_POINT ( 'NONE',  ( 0.4499999999999986200, 0.0000000000000000000, 0.0000000000000000000 ) ) ;
#147 = VERTEX_POINT ( 'NONE', #274 ) ;
#148 = COORDINATED_UNIVERSAL_TIME_OFFSET ( 1, 0, .AHEAD. ) ;
#149 = EDGE_LOOP ( 'NONE', ( #51 ) ) ;
#150 = EDGE_CURVE ( 'NONE', #267, #267, #117, .T. ) ;
#151 = PERSON_AND_ORGANIZATION ( #113, #126 ) ;
#152 = DIRECTION ( 'NONE',  ( -1.224646799147353200E-016, 1.000000000000000000, -0.0000000000000000000 ) ) ;
#153 = DIRECTION ( 'NONE',  ( 1.000000000000000000, 2.449293598294706900E-016, 0.0000000000000000000 ) ) ;
#154 =( GEOMETRIC_REPRESENTATION_CONTEXT ( 3 ) GLOBAL_UNCERTAINTY_ASSIGNED_CONTEXT ( ( #165 ) ) GLOBAL_UNIT_ASSIGNED_CONTEXT ( ( #98, #105, #48 ) ) REPRESENTATION_CONTEXT ( 'NONE', 'WORKASPACE' ) );
#155 = CIRCLE ( 'NONE', #273, 0.6850000000000000500 ) ;
#156 = CLOSED_SHELL ( 'NONE', ( #21, #169, #99, #77, #190, #211, #119, #166, #3, #124 ) ) ;
#157 = AXIS2_PLACEMENT_3D ( 'NONE', #114, #40, #55 ) ;
#158 = DIRECTION ( 'NONE',  ( -1.224646799147353200E-016, 1.000000000000000000, -0.0000000000000000000 ) ) ;
#159 = FACE_OUTER_BOUND ( 'NONE', #213, .T. ) ;
#160 = ORIENTED_EDGE ( 'NONE', *, *, #115, .T. ) ;
#161 = FACE_OUTER_BOUND ( 'NONE', #32, .T. ) ;
#162 = CARTESIAN_POINT ( 'NONE',  ( 0.0000000000000000000, 0.0000000000000000000, 0.0000000000000000000 ) ) ;
#163 = DIRECTION ( 'NONE',  ( -1.224646799147353200E-016, 1.000000000000000000, -0.0000000000000000000 ) ) ;
#164 = VERTEX_POINT ( 'NONE', #146 ) ;
#165 = UNCERTAINTY_MEASURE_WITH_UNIT (LENGTH_MEASURE( 1.000000000000000100E-005 ), #98, 'distance_accuracy_value', 'NONE');
#166 = ADVANCED_FACE ( 'NONE', ( #236 ), #272, .F. ) ;
#167 = EDGE_LOOP ( 'NONE', ( #123 ) ) ;
#168 = AXIS2_PLACEMENT_3D ( 'NONE', #229, #145, #75 ) ;
#169 = ADVANCED_FACE ( 'NONE', ( #131, #85 ), #65, .T. ) ;
#170 = DIRECTION ( 'NONE',  ( 1.000000000000000000, 0.0000000000000000000, 0.0000000000000000000 ) ) ;
#171 = EDGE_LOOP ( 'NONE', ( #222 ) ) ;
#172 = EDGE_LOOP ( 'NONE', ( #33 ) ) ;
#173 = DIRECTION ( 'NONE',  ( -1.224646799147353200E-016, 1.000000000000000000, -0.0000000000000000000 ) ) ;
#174 = FACE_OUTER_BOUND ( 'NONE', #112, .T. ) ;
#175 = PRODUCT_RELATED_PRODUCT_CATEGORY ( 'detail', '', ( #86 ) ) ;
#176 = CYLINDRICAL_SURFACE ( 'NONE', #181, 0.6850000000000000500 ) ;
#177 = AXIS2_PLACEMENT_3D ( 'NONE', #46, #109, #223 ) ;
#178 = DIRECTION ( 'NONE',  ( 2.449293598294706900E-016, -1.000000000000000000, -0.0000000000000000000 ) ) ;
#179 = COORDINATED_UNIVERSAL_TIME_OFFSET ( 1, 0, .AHEAD. ) ;
#180 = AXIS2_PLACEMENT_3D ( 'NONE', #102, #269, #28 ) ;
#181 = AXIS2_PLACEMENT_3D ( 'NONE', #63, #173, #208 ) ;
#182 = APPROVAL_DATE_TIME ( #250, #78 ) ;
#183 = PERSON_AND_ORGANIZATION ( #113, #126 ) ;
#184 = DIRECTION ( 'NONE',  ( -1.224646799147353200E-016, 1.000000000000000000, -0.0000000000000000000 ) ) ;
#185 = CARTESIAN_POINT ( 'NONE',  ( 0.0000000000000000000, 0.0000000000000000000, 0.0000000000000000000 ) ) ;
#186 = CIRCLE ( 'NONE', #237, 0.6850000000000000500 ) ;
#187 = DIRECTION ( 'NONE',  ( -1.224646799147353200E-016, 1.000000000000000000, 0.0000000000000000000 ) ) ;
#188 = EDGE_LOOP ( 'NONE', ( #83 ) ) ;
#189 = CC_DESIGN_SECURITY_CLASSIFICATION ( #219, ( #266 ) ) ;
#190 = ADVANCED_FACE ( 'NONE', ( #25, #247 ), #20, .F. ) ;
#191 = CALENDAR_DATE ( 2018, 12, 1 ) ;
#192 = DIRECTION ( 'NONE',  ( -1.224646799147353200E-016, 1.000000000000000000, -0.0000000000000000000 ) ) ;
#193 = AXIS2_PLACEMENT_3D ( 'NONE', #57, #184, #241 ) ;
#194 = VERTEX_POINT ( 'NONE', #70 ) ;
#195 = CARTESIAN_POINT ( 'NONE',  ( 3.673940397442062600E-017, -0.3000000000000002700, 0.0000000000000000000 ) ) ;
#196 = EDGE_LOOP ( 'NONE', ( #225 ) ) ;
#197 = AXIS2_PLACEMENT_3D ( 'NONE', #11, #178, #153 ) ;
#198 = COORDINATED_UNIVERSAL_TIME_OFFSET ( 1, 0, .AHEAD. ) ;
#199 = AXIS2_PLACEMENT_3D ( 'NONE', #125, #192, #259 ) ;
#200 = CARTESIAN_POINT ( 'NONE',  ( -0.6849999999999969400, -24.59999999999999800, 0.0000000000000000000 ) ) ;
#201 = CC_DESIGN_PERSON_AND_ORGANIZATION_ASSIGNMENT ( #82, #209, ( #219 ) ) ;
#202 = VERTEX_POINT ( 'NONE', #127 ) ;
#203 = EDGE_LOOP ( 'NONE', ( #234 ) ) ;
#204 = EDGE_LOOP ( 'NONE', ( #44 ) ) ;
#205 = CIRCLE ( 'NONE', #197, 0.4499999999999986200 ) ;
#206 = AXIS2_PLACEMENT_3D ( 'NONE', #122, #128, #16 ) ;
#207 = APPROVAL_DATE_TIME ( #271, #91 ) ;
#208 = DIRECTION ( 'NONE',  ( -1.000000000000000000, -1.224646799147353200E-016, 0.0000000000000000000 ) ) ;
#209 = PERSON_AND_ORGANIZATION_ROLE ( 'classification_officer' ) ;
#210 = DIRECTION ( 'NONE',  ( -1.224646799147353200E-016, 1.000000000000000000, -0.0000000000000000000 ) ) ;
#211 = ADVANCED_FACE ( 'NONE', ( #94, #96 ), #15, .T. ) ;
#212 = FACE_OUTER_BOUND ( 'NONE', #217, .T. ) ;
#213 = EDGE_LOOP ( 'NONE', ( #130 ) ) ;
#214 = APPROVAL_STATUS ( 'not_yet_approved' ) ;
#215 = CARTESIAN_POINT ( 'NONE',  ( 0.0000000000000000000, 0.0000000000000000000, 0.0000000000000000000 ) ) ;
#216 = SECURITY_CLASSIFICATION_LEVEL ( 'unclassified' ) ;
#217 = EDGE_LOOP ( 'NONE', ( #39 ) ) ;
#218 = DIRECTION ( 'NONE',  ( -1.224646799147353200E-016, 1.000000000000000000, -0.0000000000000000000 ) ) ;
#219 = SECURITY_CLASSIFICATION ( '', '', #216 ) ;
#220 = ORIENTED_EDGE ( 'NONE', *, *, #74, .F. ) ;
#221 = VERTEX_POINT ( 'NONE', #263 ) ;
#222 = ORIENTED_EDGE ( 'NONE', *, *, #50, .T. ) ;
#223 = DIRECTION ( 'NONE',  ( 1.000000000000000000, 0.0000000000000000000, 0.0000000000000000000 ) ) ;
#224 = AXIS2_PLACEMENT_3D ( 'NONE', #97, #218, #242 ) ;
#225 = ORIENTED_EDGE ( 'NONE', *, *, #132, .T. ) ;
#226 = DIRECTION ( 'NONE',  ( -1.000000000000000000, -1.224646799147353200E-016, 0.0000000000000000000 ) ) ;
#227 = CALENDAR_DATE ( 2018, 12, 1 ) ;
#228 = CARTESIAN_POINT ( 'NONE',  ( -0.6849999999999999400, -0.7000000000000002900, 0.0000000000000000000 ) ) ;
#229 = CARTESIAN_POINT ( 'NONE',  ( -2.412554194320285300E-015, 9.849999999999996100, 0.0000000000000000000 ) ) ;
#230 = CC_DESIGN_APPROVAL ( #246, ( #219 ) ) ;
#231 = CC_DESIGN_PERSON_AND_ORGANIZATION_ASSIGNMENT ( #262, #134, ( #266 ) ) ;
#232 = LOCAL_TIME ( 13, 28, 40.00000000000000000, #179 ) ;
#233 = SHAPE_DEFINITION_REPRESENTATION ( #245, #248 ) ;
#234 = ORIENTED_EDGE ( 'NONE', *, *, #132, .F. ) ;
#235 = CIRCLE ( 'NONE', #193, 0.6849999999999999400 ) ;
#236 = FACE_OUTER_BOUND ( 'NONE', #253, .T. ) ;
#237 = AXIS2_PLACEMENT_3D ( 'NONE', #195, #238, #256 ) ;
#238 = DIRECTION ( 'NONE',  ( -1.224646799147353200E-016, 1.000000000000000000, -0.0000000000000000000 ) ) ;
#239 = APPROVAL_PERSON_ORGANIZATION ( #183, #91, #49 ) ;
#240 = TOROIDAL_SURFACE ( 'NONE', #157, 0.1849999999999999700, 0.5000000000000002200 ) ;
#241 = DIRECTION ( 'NONE',  ( -1.000000000000000000, 0.0000000000000000000, 0.0000000000000000000 ) ) ;
#242 = DIRECTION ( 'NONE',  ( -1.000000000000000000, -1.582776894139422400E-016, 0.0000000000000000000 ) ) ;
#243 = CARTESIAN_POINT ( 'NONE',  ( -0.6849999999999999400, -0.5000000000000000000, 0.0000000000000000000 ) ) ;
#244 = LOCAL_TIME ( 13, 28, 40.00000000000000000, #148 ) ;
#245 = PRODUCT_DEFINITION_SHAPE ( 'NONE', 'NONE',  #104 ) ;
#246 = APPROVAL ( #19, 'UNSPECIFIED' ) ;
#247 = FACE_OUTER_BOUND ( 'NONE', #257, .T. ) ;
#248 = ADVANCED_BREP_SHAPE_REPRESENTATION ( '101.xx.xx.xx', ( #92, #54 ), #154 ) ;
#249 = CC_DESIGN_PERSON_AND_ORGANIZATION_ASSIGNMENT ( #260, #17, ( #266 ) ) ;
#250 = DATE_AND_TIME ( #67, #139 ) ;
#251 = SPHERICAL_SURFACE ( 'NONE', #177, 0.4500000000000014000 ) ;
#252 = ORIENTED_EDGE ( 'NONE', *, *, #60, .T. ) ;
#253 = EDGE_LOOP ( 'NONE', ( #220 ) ) ;
#254 = AXIS2_PLACEMENT_3D ( 'NONE', #71, #62, #1 ) ;
#255 = COORDINATED_UNIVERSAL_TIME_OFFSET ( 1, 0, .AHEAD. ) ;
#256 = DIRECTION ( 'NONE',  ( -1.000000000000000000, -1.582776894139422400E-016, 0.0000000000000000000 ) ) ;
#257 = EDGE_LOOP ( 'NONE', ( #252 ) ) ;
#258 = DATE_TIME_ROLE ( 'classification_date' ) ;
#259 = DIRECTION ( 'NONE',  ( -1.000000000000000000, -1.224646799147353200E-016, 0.0000000000000000000 ) ) ;
#260 = PERSON_AND_ORGANIZATION ( #113, #126 ) ;
#261 = ORIENTED_EDGE ( 'NONE', *, *, #88, .F. ) ;
#262 = PERSON_AND_ORGANIZATION ( #113, #126 ) ;
#263 = CARTESIAN_POINT ( 'NONE',  ( -0.6850000000000000500, -0.3000000000000003800, 0.0000000000000000000 ) ) ;
#264 = CIRCLE ( 'NONE', #137, 0.6850000000000000500 ) ;
#265 = CC_DESIGN_DATE_AND_TIME_ASSIGNMENT ( #116, #258, ( #219 ) ) ;
#266 = PRODUCT_DEFINITION_FORMATION_WITH_SPECIFIED_SOURCE ( 'ANY', '', #86, .NOT_KNOWN. ) ;
#267 = VERTEX_POINT ( 'NONE', #53 ) ;
#268 = ORIENTED_EDGE ( 'NONE', *, *, #61, .F. ) ;
#269 = DIRECTION ( 'NONE',  ( 2.449293598294706900E-016, -1.000000000000000000, -0.0000000000000000000 ) ) ;
#270 = DIRECTION ( 'NONE',  ( -1.000000000000000000, -1.224646799147353200E-016, 0.0000000000000000000 ) ) ;
#271 = DATE_AND_TIME ( #35, #27 ) ;
#272 = PLANE ( 'NONE',  #120 ) ;
#273 = AXIS2_PLACEMENT_3D ( 'NONE', #129, #163, #52 ) ;
#274 = CARTESIAN_POINT ( 'NONE',  ( -0.6850000000000000500, -0.1000000000000000600, 0.0000000000000000000 ) ) ;
#275 = DIRECTION ( 'NONE',  ( -1.000000000000000000, -1.224646799147353200E-016, 0.0000000000000000000 ) ) ;
ENDSEC;
END-ISO-10303-21;
